Artists by letter: A B C D E F G H I J K L M N O P Q R S T U V W X Y Z 0-9

 
Cruzando La Calle
Acordes:

D:232XXX
Bm:234422
A:X222XX
Gmaj7:2XXX23
Em:XXX22X
G:3XXX23
F#:223442
Gm:333553
A2:556775
F#m:222442


B, A ropa es de los dos,   la risa es de los dos,
E|----5-----5-----5-----5-----5-----5-----5-----5-----5-
B|--7---7-8---8-7---7-8---8-7---7-8---8-7---7-8---8-7---
G|------------------------------------------------------
D|------------------------------------------------------
A|------------------------------------------------------
E|------------------------------------------------------

La playa es de los
E|------5-----5-----5----
B|--7-8---8-7---7-8---8--
G|-----------------------
D|-----------------------
A|-----------------------
E|-----------------------

dos
E|----7-------9--------10----------12----------
B|------8-------10--------12----------14-------
G|--7-----7-9------9-12------12-14-------14----
D|---------------------------------------------
A|---------------------------------------------
E|---------------------------------------------


D                      Bm
Sí, la ropa es de los dos,
A                Gmaj7
la risa es de los dos,
A                  Em
la playa es de los dos.
F# Gm A2

D                      Bm
Sí, la rabia es de los dos,
A                 Gmaj7
la culpa es de los dos,
A               Em
las lágrimas ya no.
F# Gm A2

Em                A                    D
A veces te veo de lejos cruzando la calle
Em                A                 G
y me imagino las cosas tal y como eran antes.
                  A
A veces te veo de lejos cruzando

D                        Bm
Sí, la lluvia es de los dos,
A                Gmaj7
el cine es de los dos,
A                  Em
el vino es de los dos.
F# Gm A2

D                      Bm
Sí, el piso es de los dos,
A                 Gmaj7
la culpa es de los dos,
A               Em
las lágrimas ya no.
F# Gm A2

Em                 A                   D
A veces te veo de lejos cruzando la calle
Em                A                G
y me imagino las cosas tal y como eran antes.
                  A
A veces te veo de lejos cruzando


Em           F#m           G           A
Y siento una pena que no puedo soportar,
Em          F#m      G
lo que te quise eso no lo sabes,
A               D
no lo sabes tú.

(D hasta el final)


Cualquier comentario, crítica o sugerencia
[email protected]
 
 
Francisco Nixon - Cruzando La Calle :: indexed at Ultimate Guitar.
Cruzando La Calle tabs @ 911Tabs

Quick tip, so you can enjoy Cruzando La Calle even more:

If you don't really know how to deal with "Absus4" chord and his equally confusing brothers, just put the mouse cursor over them and you will be shown a helpful chord diagram.

Show us your talent, perform Cruzando La Calle!

Here you can post a video or audio performance. Tell me more ...
Where can we find your performance? Tell me more ...
Your comment:
Please, log in to post your performance.