Artists by letter: A B C D E F G H I J K L M N O P Q R S T U V W X Y Z 0-9

 
What You Got
Song " What You Got
Artist " Grinspoon
Album " Alibis and Other Lies
Year " 2007

Hey, I know there is another tab for this song on here already, but I play it slightly 
and I am currently working out the solo… but this is my interpretation of the entire song 
from the solo

Tuning " Standard (EADGBe)

Intro: x1

e|-------------|
B|-------------|
G|-6-6-------4-|
D|-6-6-6-5-4-4-|
A|-4-4-6-5-4-2-|
E|-----4-3-2---|

Verse: x4

e|----------------------------------------------|
B|-------------9-10-10-10-9-----------------5---|
G|-6-6-------4-9-9--9--9--9----6-6-------4--4-4-|
D|-6-6-6-5-4-4-9-9--9--9--9----6-6-6-5-4-4--2-4-|
A|-4-4-6-5-4-2-7-7--7--7--7----4-4-6-5-4-2----2-|
E|-----4-3-2-----------------------4-3-2--------|

Pre-chorus: x1

e|------------------|
B|-7------5----4----|
G|-6------4----3----|
D|-4-x16--2-x8-1-x8-|
A|------------------|
E|------------------|

Chorus:

e|------------------|
B|------5-5-7-7-----|
G|-6-6--4-4-6-6-----|
D|-6-6--2-2-4-4-7-7-|
A|-4-4----------7-7-|
E|--------------5-5-| x3

e|-----------|
B|-5---------|
G|-4----4----|
D|-2-x8-4----|
A|------2-x8-|
E|-----------|

2nd Verse: x4

e|----------------------------------------------|
B|-------------9-10-10-10-9-----------------5---|
G|-6-6-------4-9-9--9--9--9----6-6-------4--4-4-|
D|-6-6-6-5-4-4-9-9--9--9--9----6-6-6-5-4-4--2-4-|
A|-4-4-6-5-4-2-7-7--7--7--7----4-4-6-5-4-2----2-|
E|-----4-3-2-----------------------4-3-2--------|

2nd Pre-chorus: x1

e|------------------|
B|-7------5----4----|
G|-6------4----3----|
D|-4-x16--2-x8-1-x8-|
A|------------------|
E|------------------|

2nd Chorus:

e|------------------|
B|------5-5-7-7-----|
G|-6-6--4-4-6-6-----|
D|-6-6--2-2-4-4-7-7-|
A|-4-4----------7-7-|
E|--------------5-5-| x3

e|-----------|
B|-5---------|
G|-4----4----|
D|-2-x8-4----|
A|------2-x8-|
E|-----------|

I have not worked out the solo yet, but here is the backing(If you really want to do a 
just use notes in a B pentatonic scale and you should be fine)

Solo backing: x2

e|----------------------------------------------|
B|-------------9-10-10-10-9-----------------5---|
G|-6-6-------4-9-9--9--9--9----6-6-------4--4-4-|
D|-6-6-6-5-4-4-9-9--9--9--9----6-6-6-5-4-4--2-4-|
A|-4-4-6-5-4-2-7-7--7--7--7----4-4-6-5-4-2----2-|
E|-----4-3-2-----------------------4-3-2--------|

Build up:

e|-----------------|
B|------------4----|
G|------------3----|
D|-4-----2----1-X8-|
A|-4-----2---------|
E|-2-X16-0-X8------|

3rd Pre-chorus: x2

e|---------------------------------------------------------|
B|-----5-5-7-7-10-10---------------------------------------|
G|-6-6-4-4-6-6-9--9----------------------------------------|
D|-6-6-2-2-4-4-7--7----------------------------------------|
A|-4-4-----------------------------------------------------|
E|---------------------------------------------------------|

3rd Chorus:

e|------------------|
B|------5-5-7-7-----|
G|-6-6--4-4-6-6-----|
D|-6-6--2-2-4-4-7-7-|
A|-4-4----------7-7-|
E|--------------5-5-| x3

e|------------------------|
B|-5-----------5----------|
G|-4-----4-----4----4-----|
D|-2-x12-4-----2-x8-4-----|
A|-------2-x4-------2-----|x8
E|------------------------|

Outro:x2

e|----------------------------------|
B|------------------------------5---|
G|-6-6-------4-----6-6-------4--4-4-|
D|-6-6-6-5-4-4-----6-6-6-5-4-4--2-4-|
A|-4-4-6-5-4-2-----4-4-6-5-4-2----2-|
E|-----4-3-2-----------4-3-2--------|

End with:

e|-----
B|-----
G|-6-6-
D|-6-6-
A|-4-4-
E|-----

Any questions/comments/advice/solo parts?

Contact me at my UG profile: GuitarMan2207

Thanks
 
 
Grinspoon - What You Got :: indexed at Ultimate Guitar.
What You Got tabs @ 911Tabs

About the artist behind What You Got:

Grinspoon are an Australian post-grunge band from Lismore, fronted by Phil Jamieson with Pat Davern on guitar, Joe Hansen on bass, and Kristian Hopes on drums.

Indexed at Wikipedia.

Show us your talent, perform What You Got!

Here you can post a video or audio performance. Tell me more ...
Where can we find your performance? Tell me more ...
Your comment:
Please, log in to post your performance.