Artists by letter: A B C D E F G H I J K L M N O P Q R S T U V W X Y Z 0-9

 

Thrils Kills And Sunday Pills
this is my 1st tab, so if theres any problams, just email me

Standard tuning
P.M. = Palm Mute

VERSE RIFF:
E-|--------------------------|-
B-|--------------------------|-
G-|-4-4-4--4-4--4-4-2--7-----|-
D-|-4-4-4--4-4--4-4-2--7--2--|-
A-|-2-2-2--2-2--2-2-0--5--2--|-
E-|-----------------------0--|-

PRE CHORUS:
    P.M...............................................................
E-|--------------------------------------------------------------------|----|-
B-|--------------------------------------------------------------------|----|-
G-|--------------------------------------------------------------------|----|-
D-|-----------------------------------7-7-7-7-7-7-7-7------------------|-7--|-
A-|-2-2-2-2-2-2-2-2--2-2-2-2-2-2-2-2--5-5-5-5-5-5-5-5--7-7-7-7-7-7-7-7-|-7--|-
E-|-0-0-0-0-0-0-0-0--0-0-0-0-0-0-0-0-------------------5-5-5-5-5-5-5-5-|-5--|-

CHORUS:
E-|-------------------------------------------------|-
B-|---------------7---7-----------------------------|-
G-|-4--4--4--4----7---7-----------------------------|-
D-|-4--4--4--4--x-7-x-7--7--7--7--7---5-5-5--7-7-7--|-
A-|-2--2--2--2--x-5-x-5--7--7--7--7---5-5-5--7-7-7--|-
E-|----------------------5--5--5--5---3-3-3--5-5-5--|-

SOLO CHORDS:
E-|-----------------------------------------------|-
B-|-----------------------------------------------|-
G-|-4-4-4--x-2--4--7--2---------------------------|-
D-|-4-4-4--x-2--4--7--2----2-2-2--5--5-5--7--7-7--|-
A-|------------------------2-2-2--5--5-5--7--7-7--|-
E-|------------------------0-0-0--3--3-3--5--5-5--|-

SOLO:
E-|-----------------------------------------------------------|-
B-|-------------------------9-7-----------------12-----10/12--|-
G-|---------------------7---9-7-----------9/11--11--11--------|-
D-|-4h5-7-7--4h5-9-9------9-----9~~\--------------------------|-
A-|-----------------------------------------------------------|-
E-|-----------------------------------------------------------|-

E-|---------------------------------------|-
B-|---------------------------------------|-
G-|-14b16~~-------------------------------|-
D-|-----------------------7-9~~~----------|-
A-|---------------------------------------|-
E-|---------------------------------------|-

E-|-------7-7---------7-7--------7-7--------7-7--------7-7--9b~---12b--10h12p10----------|-
B-|-7-----7-7---7-----7-7--7-----7-7--7-----7-7--7-----7-7----------------------12-12~~--|-
G-|-9b11--------9b11-------9b11-------9b11-------9b11------------------------------------|-
D-|--------------------------------------------------------------------------------------|-
A-|--------------------------------------------------------------------------------------|-
E-|--------------------------------------------------------------------------------------|-

LAST PRE CHORUS:
    P.M...............................................................
E-|--------------------------------------------------------------------|-
B-|--------------------------------------------------------------------|-
G-|--------------------------------------------------------------------|-
D-|-----------------------------------7-7-7-7-7-7-7-7------------------|-
A-|-2-2-2-2-2-2-2-2--2-2-2-2-2-2-2-2--5-5-5-5-5-5-5-5--7-7-7-7-7-7-7-7-|-
E-|-0-0-0-0-0-0-0-0--0-0-0-0-0-0-0-0-------------------5-5-5-5-5-5-5-5-|-

P.M...............................................................
E-|--------------------------------------------------------------------|----|-
B-|--------------------------------------------------------------------|----|-
G-|--------------------------------------------------------------------|----|-
D-|-----------------------------------7-7-7-7-7-7-7-7------------------|-7--|-
A-|-2-2-2-2-2-2-2-2--2-2-2-2-2-2-2-2--5-5-5-5-5-5-5-5--7-7-7-7-7-7-7-7-|-7--|-
E-|-0-0-0-0-0-0-0-0--0-0-0-0-0-0-0-0-------------------5-5-5-5-5-5-5-5-|-5--|-
 
 
Grinspoon - Thrils Kills And Sunday Pills :: indexed at Ultimate Guitar.
Thrils Kills And Sunday Pills tabs @ 911Tabs
People who played Grinspoon - Thrils Kills And Sunday Pills also played these songs by Grinspoon:
Minute By Minute Tab, Comeback Tab, Drugs Dont Work Tab, Hard Act To Follow Tab, Minute By Minute Acoustic Tab, Sweet As Sugar Tab

About the artist behind Thrils Kills And Sunday Pills:

Grinspoon are an Australian post-grunge band from Lismore, fronted by Phil Jamieson with Pat Davern on guitar, Joe Hansen on bass, and Kristian Hopes on drums.

Indexed at Wikipedia.

Show us your talent, perform Thrils Kills And Sunday Pills!

Here you can post a video or audio performance. Tell me more ...
Where can we find your performance? Tell me more ...
Your comment:
Please, log in to post your performance.