Artists by letter: A B C D E F G H I J K L M N O P Q R S T U V W X Y Z 0-9

 
Sweet As Sugar
I did this for a pesentation so im sure its correct.

Intro-

e----|----|----|--------| |----|----|----|-------|
b----|----|----|--------| |----|----|----|-------|
g----|----|----|--------| |----|----|----|-------|
D----|----|----|--------| |----|----|----|-------|
A----|----|----|--------| |----|----|----|-----14|
E-7--|-7--|-10-|-12-12b-| |-7--|-7--|-10-|-12--12|
  x8   x8   x8   x7 x1      x8   x8   x8   x6  x2

Verse 1-
 
e---|---|---|---| |---|---|---|---| |---|---|---|---| |---|---|---|---|
b---|---|---|---| |---|---|---|---| |---|---|---|---| |---|---|---|---|
g---|---|---|---| |---|---|---|---| |---|---|---|---| |---|---|---|---|
D-9-|-9-|-12|-14| |-9-|-9-|-12|-14| |-9-|-9-|-5-|-14| |-9-|-9-|-12|-14|
A-9-|-9-|-12|-14| |-9-|-9-|-12|-14| |-9-|-9-|-5-|-14| |-9-|-9-|-12|-14|
E-7-|-7-|-10|-12| |-7-|-7-|-10|-12| |-7-|-7-|-3-|-12| |-7-|-7-|-10|-12|
  x8  x8  x8  x8    x8 x8   x8  x8    x8  x8  x8  x8   x8  x8  x8  x8

Chorus-

e-0--0---0-|-0-----0--------|
b-3----3---|-0-----0--------|
g-2--------|-1-----1--------|  x4
D-0--------|-2-----2--------|
A-0--------|-2-----2--------|
E----------|-0-----0--------|
           (1st
          E chord
          is muted
          with left
           hand )

Bridge-

e---|-------|-----------|----|
b---|-------|-----------|----|
g---|-------|-----------|----|
D---|-------|-----------|----|
A-9-|-9--11-|-12--11-12-|-14-|
E-7-|-7--9--|-10--9--10-|-12-|
  x8  x7 x1   x6  x1  x1  x8

Verse 2-

e---|---|---|---| |---|---|---|---| |---|---|---|---| |---|---|---|---|
b---|---|---|---| |---|---|---|---| |---|---|---|---| |---|---|---|---|
g---|---|---|---| |---|---|---|---| |---|---|---|---| |---|---|---|---|
D-9-|-9-|-12|-14| |-9-|-9-|-12|-14| |-9-|-9-|-5-|-14| |-9-|-9-|-12|-14|
A-9-|-9-|-12|-14| |-9-|-9-|-12|-14| |-9-|-9-|-5-|-14| |-9-|-9-|-12|-14|
E-7-|-7-|-10|-12| |-7-|-7-|-10|-12| |-7-|-7-|-3-|-12| |-7-|-7-|-10|-12|
  x8  x8  x8  x8    x8 x8   x8  x8    x8  x8  x8  x8   x8  x8  x8  x8

Chorus-

e-0--0---0-|-0-----0--------|
b-3----3---|-0-----0--------|
g-2--------|-1-----1--------|  x4
D-0--------|-2-----2--------|
A-0--------|-2-----2--------|
E----------|-0-----0--------|
           (1st
          E chord
          is muted
          with left
           hand )

Solo-

e-------------------|---------------|-----------|-12----14---|
b-10--------------7-|-9b---7----10b-|-12b---14b-|-15b---17b--|
g-9b--9b--(9)-7---7-|---------7-----|-----------|------------|
D---------------9---|---------------|-----------|------------|
A-------------------|---------------|-----------|------------|
E-------------------|---------------|-----------|------------|
                                                (Unison Bends)

e-----|------|------|        |-----|------|-0-----0-|
b--8--|--10--|--12--|        |--8--|--10--|-3--3----|
g-10b-|--12b-|--14b-|  x3    |-10b-|--12b-|-2-------|
D-----|------|------|        |-----|------|-0-------|
A-----|------|------|        |-----|------|---------|
E-----|------|------|        |-----|------|---------|
  (Unison Bends)

Other Bridge-

e-----|-----|-----|-----| |-----|-----|-----|-----|
b-----|-----|-----|-----| |-----|-----|-----|-----|
g-----|-----|-----|-----| |-----|-----|-----|-----|
D-----|-----|-----|-----| |-----|-----|-----|-----|
A-----|-----|-----|-----| |-----|-----|-----|-----|
E--7--|--7--|--10-|--12-| |--7--|--7--|--3--|--12-|
  x8     x8   x8     x8     x8    x8    x8     x8

Verse 3-

This verse is mainly Drums, bass and vocals for the first eight bars.
The guitar uses faint notes in the background.
When I played it as a presentation I palm muted the intro riff and it worked quite well. 
Like this:

PM---------------------------------
e---|---|---|---| |---|---|---|---|
b---|---|---|---| |---|---|---|---|
g---|---|---|---| |---|---|---|---|
D---|---|---|---| |---|---|---|---|
A---|---|---|---| |---|---|---|---|
E-7-|-7-|-10|-12| |-7-|-7-|-10|-12|
  x8  x8 x8  x8    x8  x8   x8  x8

Then went back to the normal verse sequence for the next eight bars.

e---|---|---|---| |---|---|---|---|
b---|---|---|---| |---|---|---|---|
g---|---|---|---| |---|---|---|---|
D-9-|-9-|-5-|-14| |-9-|-9-|-12|-14|
A-9-|-9-|-5-|-14| |-9-|-9-|-12|-14|
E-7-|-7-|-3-|-12| |-7-|-7-|-10|-12|
  x8  x8  x8  x8    x8 x8   x8  x8

Chorus-

e-0--0---0-|-0-----0--------|
b-3----3---|-0-----0--------|
g-2--------|-1-----1--------|  x6
D-0--------|-2-----2--------|
A-0--------|-2-----2--------|
E----------|-0-----0--------|
           (1st
          E chord
          is muted
          with left
           hand )

Outro-

e---|-------|-----------|----| |---|-------|-----------|----|
b---|-------|-----------|----| |---|-------|-----------|----|
g---|-------|-----------|----| |---|-------|-----------|----|
D---|-------|-----------|----| |---|-------|-----------|----|
A-9-|-9--11-|-12--11-12-|-14-| |-9-|-9--11-|-12--11-12-|-14-|
E-7-|-7--9--|-10--9--10-|-12-| |-7-|-7--9--|-10--9--10-|-12-|
  x8  x7 x1   x6  x1  x1  x8     x8  x7 x1   x6  x1  x1  x8

And that's it. Hope this tab has helped you!:)




 
 
Grinspoon - Sweet As Sugar :: indexed at Ultimate Guitar.
Sweet As Sugar tabs @ 911Tabs

About the artist behind Sweet As Sugar:

Grinspoon are an Australian post-grunge band from Lismore, fronted by Phil Jamieson with Pat Davern on guitar, Joe Hansen on bass, and Kristian Hopes on drums.

Indexed at Wikipedia.

Show us your talent, perform Sweet As Sugar!

Here you can post a video or audio performance. Tell me more ...
Where can we find your performance? Tell me more ...
Your comment:
Please, log in to post your performance.