Artists by letter: A B C D E F G H I J K L M N O P Q R S T U V W X Y Z 0-9

 
Sweet As Sugar
.  = PALM MUTE
// = PICKSLIDE
B  = BEND STRING
*  = GET FEEDBACK ON THAT NOTE

INTRO

E|----------------------------------------------------------------|
B|------------------------------------------------------------55--|
G|------------------------------------------------------------44--|
D|----------------0000000022222222----------------00000000222222--|
A|2222222222222222----------------2222222222222222----------------|
E|----------------------------------------------------------------|

VERSE

E|--------------------------------        E|---------------------------------|
B|--------------------------------        B|---------------------------------|
G|--------------------------------   X2   G|---------------------------------|
D|--------------------------------        D|---------------------------------|
A|22222222222222225555555577777777        A|2222222222222222-----------------|
E|--------------------------------        E|----------------3333333300000000-|
  ................................          ................................

E|--------------------------------|
B|--------------------------------|
G|--------------------------------|
D|--------------------------------|
A|22222222222222225555555577777777
E|--------------------------------
  ................................
                                  CHORUS

E|-------0---------|
B|-------0---------|
G|7-7-7771---------|  X4
D|7-7-7772-22-22---|
A|5-5-5552-22-22---|
E|-------0-00-00---|

PRE-VERSE 1
E|--------------------------------|
B|----------------------------55--|
G|----------------------------44--|
D|----------------00000000222222--|
A|2222222222222222----------------|
E|--------------------------------|

VERSE 2

E|--------------------------------        E|---------------------------------|
B|--------------------------------        B|---------------------------------|
G|--------------------------------   X2   G|---------------------------------|
D|--------------------------------        D|---------------------------------|
A|22222222222222225555555577777777        A|2222222222222222-----------------|
E|--------------------------------        E|----------------3333333300000000-|
  ................................         ................................

E|--------------------------------|
B|--------------------------------|
G|--------------------------------|
D|--------------------------------|
A|22222222222222225555555577777777
E|--------------------------------
  ...............................
                               CHORUS 2

E|-------0-----------|
B|-------0-----------|
G|7-7-7771-----------|  X4
D|7-7-7772-22-22-----|
A|5-5-5552-22-22-----|
E|-------0-00-00\\---|

SOLO
guitar 1
E|--------7-10--12b-10-12b------------6b--8b--9b--11b--12b---|
B|-10-10--------------------10b--12b-------------------------|
G|-----------------------------------------------------------|
D|-----------------------------------------------------------|
A|-----------------------------------------------------------|
E|-----------------------------------------------------------|

guitar 2

E|--------------------------------|
B|--------------------------------|
G|--------------------------------|
D|44444444444444447777777799999999
A|22222222222222225555555577777777
E|--------------------------------

CHORUS 3

E|--------------------------------   E|-------------------|
B|--------------------------------   B|-------------------|
G|--------------------------------   G|-------------------|
D|-7-7-777-9-9-999-4-4-444-4-4444-X3 D|-7-7-777-9-9-999-7-|
A|-5-5-555-7-7-777-2-2-222-2-2222-   A|-5-5-555-7-7-777-5-|
E|--------------------------------   E|-------------------|

AFTER CHORUS 3

E|----------------------------------------------------------------|
B|------------------------------------------------------------55--|
G|------------------------------------------------------------44--|
D|----------------0000000022222222----------------00000000222222--|
A|2222222222222222----------------2222222222222222----------------|
E|----------------------------------------------------------------|
  ................................
                              BREAKDOWN

E|17*-------------------------------------------------------------|
B|--------------------------------18*----------------15*----------|
G|----------------------------------------------------------------|
D|----------------------------------------------------------------|
A|----------------------------------------------------------------|
E|----------------------------------------------------------------|

E|-----------------------------------------------------------------|
B|-----------------------------------------------------------------|
G|-----------------------------------------------------------------|
D|------------------------------------------------0000000022222222-|
A|2222222222222222----------------2222222222222222-----------------|
E|----------------3333333300000000---------------------------------|

CHORUS 4

E|-------0--------|
B|-------0--------|
G|7-7-7771--------|  X6
D|7-7-7772-22-22--|
A|5-5-5552-22-22--|
E|-------0-00-00--|

E|----------------------------------------------------------------|
B|----------------------------------------------------------------|
G|------------------------------------------------------------99--|
D|44444444444444447777777799999999444444444444444477777777999999--
A|22222222222222225555555577777777222222222222222255555555777777
E|----------------------------------------------------------------

HEY GUYS HAVE FUN WITH THIS TAB AND GIVE ME A SHOUT IF THERE IS SOMRTHING THAT NEEDS 
AT [email protected]
 
 
Grinspoon - Sweet As Sugar :: indexed at Ultimate Guitar.
Sweet As Sugar tabs @ 911Tabs

About the artist behind Sweet As Sugar:

Grinspoon are an Australian post-grunge band from Lismore, fronted by Phil Jamieson with Pat Davern on guitar, Joe Hansen on bass, and Kristian Hopes on drums.

Indexed at Wikipedia.

Show us your talent, perform Sweet As Sugar!

Here you can post a video or audio performance. Tell me more ...
Where can we find your performance? Tell me more ...
Your comment:
Please, log in to post your performance.