Artists by letter: A B C D E F G H I J K L M N O P Q R S T U V W X Y Z 0-9

 
Sweet As Sugar
Grinspoon - Sweet As Sugar
Tabbed By Oliver Rees ([email protected])

Main Riff

B5 x 16    D5 x 16    E5 x 16

Riff 2

E||----------------------|
B||----------------------|
G||9--9--9-9-9--5-5-5-5--|
D||9--9--9-9-9--3-3-3-3--|
A||7--7--7-7-7--3-3-3-3--|
E||----------------------|

Chours Chords

D5           E majour

E||-------------0-0-0-0--|
B||-------------0-0-0-0--|
G||9--9--9-9-9--1-1-1-1--|
D||9--9--9-9-9--2-2-2-2--|
A||7--7--7-7-7--2-2-2-2--|
E||-------------0-0-0-0--|
                                                            
Slolo - Over Main Riff

E||--------7-10--12b-10-12b------------6b--8b--9b--11b--12b---|
B||-10-10--------------------10b--12b-------------------------|
G||-----------------------------------------------------------|
D||-----------------------------------------------------------|
A||-----------------------------------------------------------|
E||-----------------------------------------------------------|

Chords After Solo

G5            A5           B5

E||-----------------------------------------------------------|
B||-----------------------------------------------------------|
G||-----------------------------------------------------------|
D||-5-5-5-5-5-5--7-7-7-7-7-7--9-9-9-9-9-9-9-9-9-9-9-9---------|
A||-5-5-5-5-5-5--7-7-7-7-7-7--9-9-9-9-9-9-9-9-9-9-9-9---------|
E||-3-3-3-3-3-3--5-5-5-5-5-5--7-7-7-7-7-7-7-7-7-7-7-7---------|

Song Form

Main Riff x 3
Riff 2 x 1 
Main Riff x 1
Chorus x 4
Main Riff x 3
Riff 2 x 1
Main Riff x 1
Chorus x 4
Solo
Chords After Solo x 4
Main Riff x 4
Riff 2 x 1
Main Riff x 1
Chorus x 5
Main Riff x 2

 
 
Grinspoon - Sweet As Sugar :: indexed at Ultimate Guitar.
Sweet As Sugar tabs @ 911Tabs

About the artist behind Sweet As Sugar:

Grinspoon are an Australian post-grunge band from Lismore, fronted by Phil Jamieson with Pat Davern on guitar, Joe Hansen on bass, and Kristian Hopes on drums.

Indexed at Wikipedia.

Show us your talent, perform Sweet As Sugar!

Here you can post a video or audio performance. Tell me more ...
Where can we find your performance? Tell me more ...
Your comment:
Please, log in to post your performance.