Artists by letter: A B C D E F G H I J K L M N O P Q R S T U V W X Y Z 0-9

Snap Your Fingers Snap Your Neck (ver 2) - Grinspoon


 
Snap Your Fingers Snap Your Neck
SONG: Snap Your Fingers, Snap Your Neck
ARTIST: Grinspoon (covering Prong)
ALBUM: Pushing Buttons EP
TAB: Mikey
E-MAIL: [email protected]

TUNING: Drop-C (CGCFAD)

This is basically exactly the same as the original Prong version, but a little bit
different (the end of the verse, on the Prong version, has a more double-kick drum
sound to it, and the second verse of the Grinspoon version repeats the main heavy
riff throughout, as well as having the PM'd riff). The chorus is also played a little
bit differently. But anyway this is Grinspoon's kickarse version. Enjoy!



INTRO
D |------------------------------------------------------------------------------------|
A |------------------------------------------------------------------------------------|
F |--------------------------6--------------------------------6------------------------|
C |------------------------------------------------------------------------------------|
G |-----0---0-0--------------4------------(4)\-0--------------4-------------5/10\0-----|
C |-----0---0-0--------------------------------0----------------------------5/10\0-----|
     PM ^   ^

D |---------------------------------|
A |---------------------------------|
F |o-------------------------------o|
C |o-------------------------------o|
G |-----0--0--0---------1-----1-----|
C |-----0--0--0---------1-----1-----|
    (play x 8)

D |--------------------------------------|
A |--------------------------------------|
F |--------------------------------------|
C |--------------------------------------|
G |-----0---------
 
 
Grinspoon - Snap Your Fingers Snap Your Neck :: indexed at Ultimate Guitar.
Snap Your Fingers Snap Your Neck tabs @ 911Tabs
People who played Grinspoon - Snap Your Fingers Snap Your Neck also played these songs by Grinspoon:
Minute By Minute Tab, Comeback Tab, Drugs Dont Work Tab, Hard Act To Follow Tab, Minute By Minute Acoustic Tab, Sweet As Sugar Tab

About the artist behind Snap Your Fingers Snap Your Neck:

Grinspoon are an Australian post-grunge band from Lismore, fronted by Phil Jamieson with Pat Davern on guitar, Joe Hansen on bass, and Kristian Hopes on drums.

Indexed at Wikipedia.

Show us your talent, perform Snap Your Fingers Snap Your Neck!

Here you can post a video or audio performance. Tell me more ...
Where can we find your performance? Tell me more ...
Your comment:
Please, log in to post your performance.