Artists by letter: A B C D E F G H I J K L M N O P Q R S T U V W X Y Z 0-9

 
Chemical Heart
Artist: Grinspoon
Song: Chemical Heart
Key
s = slide

Main riff
E|--------------------------------------------------------|
B|-15----15---15----15----------13---13----13-----13------|
G|----14----14---14----14-14-s----12----12----12------12s-|
D|--------------------------------------------------------|
A|--------------------------------------------------------|
E|--------------------------------------------------------|
 (slide back to start of the riff)

Chorus
    D5            C5   
E|---------------------------------------------|
B|---------------------------------------------|
G|--7-7-7-7-7-7-7-5-5-5-5-5-5-5-5--------------|
D|--7-7-7-7-7-7-7-5-5-5-5-5-5-5-5--------------|
A|--5-5-5-5-5-5-5-3-3-3-3-3-3-3-3--------------|
E|---------------------------------------------|
    Can't get... Chemical heart
    Every time...

Outro            End On   
E|-----------|----------|
B|-----------|----------|
G|---7--5----|--5-------|
D|---7--5----|--5-------|
A|---5--3----|--7-------|
E|-----------|----------|

Order
Verse until chorus
Chorus 
Verse until chorus
Chorus 
Verse until chorus
Chorus x2
Outro


 
 
Grinspoon - Chemical Heart :: indexed at Ultimate Guitar.
Chemical Heart tabs @ 911Tabs

About the artist behind Chemical Heart:

Grinspoon are an Australian post-grunge band from Lismore, fronted by Phil Jamieson with Pat Davern on guitar, Joe Hansen on bass, and Kristian Hopes on drums.

Indexed at Wikipedia.

Show us your talent, perform Chemical Heart!

Here you can post a video or audio performance. Tell me more ...
Where can we find your performance? Tell me more ...
Your comment:
Please, log in to post your performance.