Artists by letter: A B C D E F G H I J K L M N O P Q R S T U V W X Y Z 0-9

 
Carried Away
[Intro]
e|----------------------------------------------------------|
B|----------------------------------------------------------|
G|-------------------------------------------------55-5-5-5-|
D|-5-5-5-5-5-5-5-5-8-8-8-8-8-8-8-8\1-1-1-1-1-1-1-1-55-5-5-5-|
A|-5-5-5-5-5-5-5-5-8-8-8-8-8-8-8-8\1-1-1-1-1-1-1-1-33-3-3-3-|
D|-5-5-5-5-5-5-5-5-8-8-8-8-8-8-8-8\1-1-1-1-1-1-1-1----------|x2
 
[Verse] 
(All) 
e|------------------------------------------------------------------------|------------------------13b-|
B|------------------------------------------------------------------------|-----------9b--11b--13b-15b-|
G|------------------------------------------------------------------------|-----------11b-13b--15b-----|
D|-------------------------------------------------------5-5-5-(guitar1)--|-(guitar2)------------------|
A|-5-5-5-5-5-5-5-5-5-5-5-5-5-5-5-8-8-8-1-1-1-8-8-8-1-1-1-3-3-3------------|----------------------------|
D|-5-5-5-5-5-5-5-5-5-5-5-5-5-5-5-8-8-8-1-1-1-8-8-8-1-1-1------------------|----------------------------|
PM * * * * * * * * * * * * * * * * * * * * * * * * * * * 

e|---------------------------------------------------------2-|
B|---------------------------------------------------------3-|
G|-------------------------------------------------5-5-----2-|
D|-5-5-5-5-5-5-5-5/8-8-8-8-8-8-8-8\1-1-1-1-1-1-1-1-5-5-5-3-0-|
A|-5-5-5-5-5-5-5-5/8-8-8-8-8-8-8-8\1-1-1-1-1-1-1-1-3-3-5-3-0-|
D|-5-5-5-5-5-5-5-5/8-8-8-8-8-8-8-8\1-1-1-1-1-1-1-1-----5-3-0-| 

************************************

| \   Slide down
| b   Bend
| PM  Palm mute
| /   Slide up 

************************************
 
 
Grinspoon - Carried Away :: indexed at Ultimate Guitar.
Carried Away tabs @ 911Tabs

About the artist behind Carried Away:

Grinspoon are an Australian post-grunge band from Lismore, fronted by Phil Jamieson with Pat Davern on guitar, Joe Hansen on bass, and Kristian Hopes on drums.

Indexed at Wikipedia.

Show us your talent, perform Carried Away!

Here you can post a video or audio performance. Tell me more ...
Where can we find your performance? Tell me more ...
Your comment:
Please, log in to post your performance.