Artists by letter: A B C D E F G H I J K L M N O P Q R S T U V W X Y Z 0-9

 
Black Friday
Artist: Grinspoon
Song: Black Friday
Album: Pushing Buttons E.P

~ = Vibrato
\ = Slide Down
/ = Slide Up
^^^ = Bend String Slowly
p = Pull Off
~~~ = Let Ring
* = Harmonic

DROP D TUNNING (DADGBe)

INTRO

e|---------------------------------------------------|   
B|---------------------------------------------------|    x2
G|---------------------------------------------------|   
D|--3-0-3-3-0-0-0-3-0-3-0-0-0-3-0-3-0-0-0-3-0-34444--|
A|--3-0-3-3-0-0-0-3-0-3-0-0-0-3-0-3-0-0-0-3-0-34444--|
D|--3-0-3-3-0-0-0-3-0-3-0-0-0-3-0-3-0-0-0-3-0-34444--|

e|-----------------------------------|   
B|-----------------------------------|    x3
G|-----------------------------------|   
D|--0--------------------------------|
A|--0-8-8-8-8-8-8-8-8-8-8-8-8-8-8-8--|
D|--0--------------------------------|

e|-----------------------------------------|   
B|-----------------------------------------|    
G|-----------------------------------------|   
D|--0--------------------------------------|
A|--0-8-8-8-8-8-8-8-8-8-8-8-8-8-8-8-8~~~\--|
D|--0--------------------------------------|

VERSE / CHORUS  (1)

e|-------------------------------------------------------------------|   
B|-------------------------------------------------------------------|    
G|-------------------------------------------------------------------|   
D|--3-4-4-4~~~\----------3-4-4-4-0-3-0--0-3-0--0-3-0--0-3-0-3-4-4-4--|
A|--3-4-4-4~~~\----------3-4-4-4-0-3-0--0-3-0--0-3-0--0-3-0-3-4-4-4--|
D|--3-4-4-4~~~\----------3-4-4-4-0-3-0--0-3-0--0-3-0--0-3-0-3-4-4-4--|
                                    
e|---------------------|   
B|---------------------|   x3    
G|---------------------|   
D|--0-3-0--------------|
A|--0-3-0-*3-*3-*3-*3--|
D|--0-3-0--------------|

e|-----------------|   
B|-----------------|      
G|-----------------|   
D|--0-3-0-3-4-4-4--|
A|--0-3-0-3-4-4-4--|
D|--0-3-0-3-4-4-4--|

BRIDGE

e|-----------------------------------|   
B|-----------------------------------|    x3
G|-----------------------------------|   
D|--0--------------------------------|
A|--0-8-8-8-8-8-8-8-8-8-8-8-8-8-8-8--|
D|--0--------------------------------|

e|-----------------------------------------|   
B|-----------------------------------------|    
G|-----------------------------------------|   
D|--0--------------------------------------|
A|--0-8-8-8-8-8-8-8-8-8-8-8-8-8-8-8-8~~~\--|
D|--0--------------------------------------|

VERSE / CHORUS (2)

e|--------------------------------------------------------------------|   
B|--------------------------------------------------------------------|    
G|--------------------------------------------------------------------|   
D|--3-4-4-4~~~\-xxxxxxxx\-3-4-4-4-0-3-0--0-3-0--0-3-0--0-3-0-3-4-4-4--|
A|--3-4-4-4~~~\-xxxxxxxx\-3-4-4-4-0-3-0--0-3-0--0-3-0--0-3-0-3-4-4-4--|
D|--3-4-4-4~~~\-xxxxxxxx\-3-4-4-4-0-3-0--0-3-0--0-3-0--0-3-0-3-4-4-4--|
                                    
e|---------------------|   
B|---------------------|   x3    
G|---------------------|   
D|--0-3-0--------------|
A|--0-3-0-*3-*3-*3-*3--|
D|--0-3-0--------------|

e|-----------------|   
B|-----------------|      
G|-----------------|   
D|--0-3-0-3-4-4-4--|
A|--0-3-0-3-4-4-4--|
D|--0-3-0-3-4-4-4--|

BRIGDE 2

Guitar 1
e|----------------------------------|   
B|----------------------------------|   x4   
G|----------------------------------|   
D|-12-12-0-10-10-0-9-9-0-8-8-3-5-0--|
A|-12-12-0-10-10-0-9-9-0-8-8-3-5-0--|
D|-12-12-0-10-10-0-9-9-0-8-8-3-5-0--|

Guitar 2 (Wah)
e|-----------------------------|   
B|-----------------------------|   x4   
G|-----------------------------|   
D|--x-x-0-x-x-0-x-0-x-x-x-x-0--|
A|--x-x-0-x-x-0-x-0-x-x-x-x-0--|
D|--x-x-0-x-x-0-x-0-x-x-x-x-0--|

BRIDGE / SOLO

Guitar 1 (Wah)
e|-------------------|   
B|-------------------|  x2  
G|-------------------|   
D|-------------------|
A|--9-8-9-10-10-10\--|
D|-------------------|

e|--------------------|   
B|--------------------|    
G|--/12~--------12~\--|   
D|--------/16~--------|
A|--------------------|
D|--------------------|

e|--------------------|   
B|--/10~--------10~\--|    
G|--/12~--/14~--12~\--|   
D|--------/16~--------|
A|--------------------|
D|--------------------|

Guitar 2
e|---------------------------------------------------|   
B|---------------------------------------------------|    x4
G|---------------------------------------------------|   
D|--3-0-3-3-0-0-0-3-0-3-0-0-0-3-0-3-0-0-0-3-0-34444--|
A|--3-0-3-3-0-0-0-3-0-3-0-0-0-3-0-3-0-0-0-3-0-34444--|
D|--3-0-3-3-0-0-0-3-0-3-0-0-0-3-0-3-0-0-0-3-0-34444--|

VERSE / CHORUS (3)

e|-------------------------------------|   
B|-------------------------------------|    
G|-------------------------------------|   
D|-0-3-0--0-3-0--0-3-0--0-3-0-3-4-4-4--|
A|-0-3-0--0-3-0--0-3-0--0-3-0-3-4-4-4--|
D|-0-3-0--0-3-0--0-3-0--0-3-0-3-4-4-4--|
                                    
e|---------------------|   
B|---------------------|   x3    
G|---------------------|   
D|--0-3-0--------------|
A|--0-3-0-*3-*3-*3-*3--|
D|--0-3-0--------------|

e|-----------------|   
B|-----------------|      
G|-----------------|   
D|--0-3-0-3-4-4-4--|
A|--0-3-0-3-4-4-4--|
D|--0-3-0-3-4-4-4--|

BRIDGE

Guitar 1
e|-----------------------------------|   
B|-----------------------------------|    x3
G|-----------------------------------|   
D|--0--------------------------------|
A|--0-8-8-8-8-8-8-8-8-8-8-8-8-8-8-8--|
D|--0--------------------------------|

OUTRO

Guitar 1
e|-------------------------------------------------|   
B|-------------------------------------------------|      
G|-------------------------------------------------|   
D|-12-12-0-10-10-0-9-9-0-8-8-3-5-0-0-3-3-0-3-4-4-0-|
A|-12-12-0-10-10-0-9-9-0-8-8-3-5-0-0-3-3-0-3-4-4-0-|
D|-12-12-0-10-10-0-9-9-0-8-8-3-5-0-0-3-3-0-3-4-4-0-|

Guitar 2 (Wah)
e|-----------------------------|   
B|-----------------------------|     
G|-----------------------------|   
D|--x-x-0-x-x-0-x-0-x-x-x-x-0--|
A|--x-x-0-x-x-0-x-0-x-x-x-x-0--|
D|--x-x-0-x-x-0-x-0-x-x-x-x-0--|


 
 
Grinspoon - Black Friday :: indexed at Ultimate Guitar.
Black Friday tabs @ 911Tabs

About the artist behind Black Friday:

Grinspoon are an Australian post-grunge band from Lismore, fronted by Phil Jamieson with Pat Davern on guitar, Joe Hansen on bass, and Kristian Hopes on drums.

Indexed at Wikipedia.

Show us your talent, perform Black Friday!

Here you can post a video or audio performance. Tell me more ...
Where can we find your performance? Tell me more ...
Your comment:
Please, log in to post your performance.