Artists by letter: A B C D E F G H I J K L M N O P Q R S T U V W X Y Z 0-9

 
Far Alone
[Intro]

e|6-------2-------6--------2----1--------------------------------------------|
B|----------------------------------4-------4-------4------------------------|
G|---------------------------------------------------------------------------|
D|---------------------------------------------------------------------------|
A|---------------------------------------------------------------------------|
E|---------------------------------------------------------------------------|

e|6-6-4-2-------6-6-4-2---1---------------------------1----------------------|
B|----------------------------4-4-2-4-------4-4-2-4--------------------------|
G|---------------------------------------------------------------------------|
D|---------------------------------------------------------------------------|
A|---------------------------------------------------------------------------|
E|---------------------------------------------------------------------------|

(Repeat the second part for the rest of the song)
 
 
G-eazy - Far Alone :: indexed at Ultimate Guitar.
Far Alone tabs @ 911Tabs
People who played G-eazy - Far Alone also played these songs by G-eazy:
Runaround Sue Chords, Marilyn Tab, Remember You, Marilyn Chords, Remember You Tab, Lady Killers Chords

Quick tip, so you can enjoy Far Alone even more:

Try out the AutoScroller option ... It scrolls the page for you, so you can totally focus on nailing that solo. You can choose among different speeds using your mouse or your keyboard (keys 0, 1, 2 and 3).

Show us your talent, perform Far Alone!

Here you can post a video or audio performance. Tell me more ...
Where can we find your performance? Tell me more ...
Your comment:
Please, log in to post your performance.