Artists by letter: A B C D E F G H I J K L M N O P Q R S T U V W X Y Z 0-9

 
Touch
Intro/Verse Rhythm chords: Amaj7   A7   Dmaj7   Dm   Gm
Chorus Rhythm Chords: Bm7 E

e||---0---|---2---|---5---|---5---|---3---||
B||---2---|---2---|---7---|---6---|---3---||
G||---1---|---0---|---6---|---7---|---3---||
D||---2---|---2---|---7---|---7---|---5---||
A||---0---|---0---|---5---|---5---|---5---||
E||-------|-------|-------|-------|---3---||

the Dm and Gm each go for a half measure



Lead guitar
e||--------12--------12--||
B||-----14--------14-----||  x2 (1st measure)
G||--13--------13--------||
D||----------------------||
A||----------------------||
E||----------------------||

e||--------14--------14--||
B||-----14--------14-----||  x2 (2nd measure)
G||--12--------12--------||
D||----------------------||
A||----------------------||
E||----------------------||

e||--------17--------17--||
B||-----19--------19-----||  x2 (3rd measure)
G||--18--------18--------||
D||----------------------||
A||----------------------||
E||----------------------||

e||--------17--------17----15----------||
B||-----15--------15----------15-------||   (4th measure)
G||--15--------15----------------15----||   the last 3 notes are a bit tricky to hear
D||------------------------------------||
A||------------------------------------||
E||------------------------------------||

Chorus Rhythm (Bm7 to E)
e||---0---|---0---||
B||---2---|---0---||
G||---2---|---1---||
D||---4---|---2---||
A||---2---|---2---||
E||-------|---0---||

Chorus Lead
e||--------12--------12--||
B||-----14--------14-----||
G||--14--------14--------||
D||----------------------||
A||----------------------||
E||----------------------||

e||--------12--------12--||
B||-----12--------12-----||  x2 (1st measure)
G||--13--------13--------||
D||----------------------||
A||----------------------||
E||----------------------||

Lead guitar

repeat verse once
repeat chorus twice

Bridge Rhythm - with picking pattern (too lazy for that)

e||---0---|---2---|---5---|---5---|---3---||
B||---2---|---2---|---7---|---6---|---3---||
G||---1---|---0---|---6---|---7---|---3---||
D||---2---|---2---|---7---|---7---|---5---|| x1
A||---0---|---0---|---5---|---5---|---5---||
E||-------|-------|-------|-------|---3---||

e||---0---|---0---||
B||---2---|---0---||
G||---2---|---1---||
D||---4---|---2---|| x2
A||---2---|---2---||
E||-------|---0---||

BRIDGE LEAD
e||--------12--------12--||
B||-----14--------14-----||  x2
G||--13--------13--------||
D||----------------------||
A||----------------------||
E||----------------------||

e||--------14--------14--||
B||-----14--------14-----||  x2
G||--12--------12--------||
D||----------------------||
A||----------------------||
E||----------------------||

e||--------17--------17--||
B||-----19--------19-----||  x2
G||--18--------18--------||
D||----------------------||
A||----------------------||
E||----------------------||

e||--------17--------17----15----------||
B||-----15--------15----------15-------||   x1
G||--15--------15----------------15----||
D||------------------------------------||
A||------------------------------------||
E||------------------------------------||

e||--------12--------12--||
B||-----14--------14-----||
G||--14--------14--------||
D||----------------------|| x1
A||----------------------||
E||----------------------||

e||--------12--------12--||
B||-----12--------12-----||  x1
G||--13--------13--------||
D||----------------------||
A||----------------------||
E||----------------------||

e||--------12--------12--||
B||-----14--------14-----||
G||--14--------14--------||
D||----------------------|| x1
A||----------------------||
E||----------------------||

e||--------12--------12--||
B||-----12--------12-----||  x1
G||--13--------13--------||
D||----------------------||
A||----------------------||
E||----------------------||

Solo Rhythm - Play intro/verse x1 then chorus x2

solo lead - another day.

Repeat verse x1
Repeat chorus x2

End on
e||---0---||
B||---2---||
G||---1---||
D||---2---||
A||---0---||
E||-------||
 
 
Foo Fighters - Touch :: indexed at Ultimate Guitar.
Touch tabs @ 911Tabs

About the artist behind Touch:

Foo Fighters is an American alternative rock band formed by singer/guitarist Dave Grohl in 1995.[1] Grohl formed the group as a one-man project after the dissolution of his previous band Nirvana in 1994. Prior to the release of Foo Fighters in 1995, Grohl drafted Nate Mendel (bass), William Goldsmith (drums), and Pat Smear (guitar) to complete the group. Goldsmith and Smear left after the recording of the group's second album The Colour and the Shape (1997). They were replaced by Taylor Hawkins and Franz Stahl, respectively, although Stahl left prior to the recording of the group's third album, There Is Nothing Left to Lose (1999).

Chris Shiflett joined as the band's second guitarist after the completion of There is Nothing Left to Lose. The band released its fourth album One by One in 2002. The group followed that release with the two-disc In Your Honor (2005), which was split between acoustic songs and harder-rocking material. Foo Fighters released its sixth album Echoes, Silence, Patience & Grace in 2007. Over the course of the band's career, three of its albums have won Grammy Awards for Best Rock Album, and all six have been nominated for Grammys.

Indexed at Wikipedia.

Show us your talent, perform Touch!

Here you can post a video or audio performance. Tell me more ...
Where can we find your performance? Tell me more ...
Your comment:
Please, log in to post your performance.