Artists by letter: A B C D E F G H I J K L M N O P Q R S T U V W X Y Z 0-9

The Feast And The Famine (ver 3) - Foo Fighters


 
The Feast And The Famine
------------------------------------------------------------------------------
                     The Feast and The Famine - Foo Fighters 
------------------------------------------------------------------------------
Tabbed by: GrohlDFW.com
E-mail: [email protected]

*Any edits or suggestions are welcome*

Guitar 1 (Dave):  E A D G B e
Guitar 2 (Chris): E A D G B e
Guitar 3 (Pat):   E A D G B e

Intro
(Guitar 2)
e|----|-----0-------0-------0------------|-----0-------0-------0-----------|
B|----|-7-------7-------7-------7--------|-3-------3-------3-------3-------|
G|--8-|---8---8---8---8---8---8---8----4-|---4---4---4---4---4---4---4-----|
D|----|----------------------------------|---------------------------------|
A|----|----------------------------------|---------------------------------|
E|----|----------------------------------|---------------------------------|

Verse 1
(Guitar 1)                                                 
e|---|     one time    e|-------------------------------------------------------------------|
B|---|     with vocals B|-------------------------------------------------------------------|
G|---| x1  only, then: G|-------------------------------------------------------------------|
D|---|                 D|--4-4-4-4-4-4-4-4-4-4-4-4-4-4-4----5-5-5-5-5-5-5-5-5-5-5-5-5-5-5---| x2
A|---|                 A|--6-6-6-6-6-6-6-6-6-6-6-6-6-6-6----7-7-7-7-7-7-7-7-7-7-7-7-7-7-7---|
E|---|                 E|-------------------------------------------------------------------|
                           P.M.
"They took your soul and they took you for fools..."
   E
e|-------------------------------------------------------------------|
B|-------------------------------------------------------------------|
G|-------------------------------------------------------------------|
D|-9-9-9-9-9-9-9-9-9-9-9-9-9-9-9----9-9-9-9-9-9-9-9-9-9-9-9-9-9-9-9--|
A|-7-7-7-7-7-7-7-7-7-7-7-7-7-7-7----7-7-7-7-7-7-7-7-7-7-7-7-7-7-7-7--|
E|-------------------------------------------------------------------|

(Guitar 2)
e||---------0-------0-------0----------------0-------0-------0----------|
B||-----7-------7-------7-------7--------3-------3-------3-------3------|
G||o--8---8---8---8---8---8---8---8----4---4---4---4---4---4---4---4----| x2
D||o--------------------------------------------------------------------|
A||---------------------------------------------------------------------|
E||---------------------------------------------------------------------|

e|--------0-------0-------0----------------0-------0-------0-----------||
B|----3-------3-------3-------3--------3-------3-------3-------3-------||
G|--1---1---1---1---1---1---1---1----1---1---1---1---1---1---1---1----o|| repeat both phrases x2
D|--------------------------------------------------------------------o||
A|---------------------------------------------------------------------||
E|---------------------------------------------------------------------||

Chorus
(Guitar 1)                                          1.                  2.
    B                             G                  G         D         G A
e|--0--0-0-0-0-0-0-0-0-0-0-0-0-0--3--3-3-3-3-3-3-3-|-3-3-3-3-3--------||-3----------------||
B|--0--0-0-0-0-0-0-0-0-0-0-0-0-0--3--3-3-3-3-3-3-3-|-3-3-3-3-3-3---3--||-3-2-2-2-2-2-2-2--||
G|--4--4-4-4-4-4-4-4-4-4-4-4-4-4--0--0-0-0-0-0-0-0-|-0-0-0-0-0-2---2-o||-0-2-2-2-2-2-2-2--||
D|--4--4-4-4-4-4-4-4-4-4-4-4-4-4--0--0-0-0-0-0-0-0-|-0-0-0-0-0-0---0-o||-0-2-2-2-2-2-2-2--||
A|--2--2-2-2-2-2-2-2-2-2-2-2-2-2-------------------|------------------||---0-0-0-0-0-0-0--||
E|--------------------------------3--3-3-3-3-3-3-3-|-3-3-3-3-3--------||-3----------------||
  "Amen!!!..."

    E
e|--0---0-0-0-0-0-0-0---0-0-0-0----0-0-0-0-0-0-0-0-0---0-0-0-0--|
B|--0---0-0-0-0-0-0-0---0-0-0-0----0-0-0-0-0-0-0-0-0---0-0-0-0--|
G|--0h1-1-1-1-1-1-1-0h1-1-1-1-1----1-1-1-1-1-1-1-1-0h1-1-1-1-1--|
D|--0h2-2-2-2-2-2-2-0h2-2-2-2-2----2-2-2-2-2-2-2-2-0h2-2-2-2-2--|
A|--0h2-2-2-2-2-2-2-0h2-2-2-2-2----2-2-2-2-2-2-2-2-0h2-2-2-2-2--|
E|--0---0-0-0-0-0-0-0---0-0-0-0----0-0-0-0-0-0-0-0-0---0-0-0-0--|

(Guitar 2)
e|--------0-------0-------0---------------0-------0-------0-------------|
B|----4-------4-------4-------4-------3-------3-------3-------3---------|
G|--4---4---4---4---4---4---4---4---4---4---4---4---4---4---4---4-------|
D|----------------------------------------------------------------------| x2
A|----------------------------------------------------------------------|
E|----------------------------------------------------------------------|

e|--------0-------0-------0---------------0-------0-------0------------|
B|----3-------3-------3-------3-------3-------3-------3-------3--------|
G|--1---1---1---1---1---1---1---1---1---1---1---1---1---1---1---1------| 
D|---------------------------------------------------------------------|
A|---------------------------------------------------------------------|
E|---------------------------------------------------------------------|

(Guitar 3)
                                                    1.                  2.
    Bm                            G                  G         D         G A
e|-------------------------------------------------|------------------||-----------------||
B|-------------------------------------------------|------------------||-----------------||
G|--4--4-4-4-4-4-4-4-4-4-4-4-4-4-------------------|-----------7---7-o||-----------------||
D|--4--4-4-4-4-4-4-4-4-4-4-4-4-4--5--5-5-5-5-5-5-5-|-5-5-5-5-5-7---7-o||-5-7-7-7-7-7-7-7-||
A|--2--2-2-2-0h2-2-2-0h2-2-2-0h2--5--5-5-5-5-5-5-5-|-5-5-5-5-5-5---5--||-5-7-7-7-7-7-7-7-||
E|--------------------------------3--3-3-3-3-3-3-3-|-3-3-3-3-3--------||-3-5-5-5-5-5-5-5-||

e|--0-0-0-0-0-0-0-0-0-0-0-0-0-0----0-0-0-0-0-0-0-0-0-0-0-0-0-0--|
B|--0-0-0-0-0-0-0-0-0-0-0-0-0-0----0-0-0-0-0-0-0-0-0-0-0-0-0-0--|
G|--9-9-9-9-9-9-9-9-9-9-9-9-9-9----9-9-9-9-9-9-9-9-9-9-9-9-9-9--|
D|--9-9-9-9-9-9-9-9-9-9-9-9-9-9----9-9-9-9-9-9-9-9-9-9-9-9-9-9--|
A|--7-7-7-7-7-7-7-7-7-7-7-7-7-7----7-7-7-7-7-7-7-7-7-7-7-7-7-7--|
E|--------------------------------------------------------------|

Verse 2
(Guitar 1 + 3)                                         1.                 2.
    B                               G                   G                  G         A
e|----------------------------------------------------|-----------------||-----------------||
B|----------------------------------3-3-3-3-3-3-3-3-3-|-3-3-3-3-3-3-----||-3-3-3-3-3-2-2-2-||
G|--4-4-4-4-4-4-4-4-4-4-4-4-4-4-4---0-0-0-0-0-0-0-0-0-|-0-0-0-0-0-0----o||-0-0-0-0-0-2-2-2-||
D|--4-4-4-4-4-4-4-4-4-4-4-4-4-4-4---0-0-0-0-0-0-0-0-0-|-0-0-0-0-0-0----o||-0-0-0-0-0-2-2-2-||
A|--2-2-2-2-2-2-2-2-2-2-2-2-2-2-2---------------------|-----------------||-----------0-0-0-||
E|----------------------------------3-3-3-3-3-3-3-3-3-|-3-3-3-3-3-3-----||-3-3-3-3-3-------||
                         
    E
e|---------------------------------------------------------------|
B|--0---0-0-0-0-0-0-0---0-0-0-0-0---0-0-0-0-0-0-0-0-0---0-0-0-0--|
G|--0h1-1-1-1-1-1-1-0h1-1-1-1-1-1---1-1-1-1-1-1-1-1-0h1-1-1-1-1--|
D|--0h2-2-2-2-2-2-2-0h2-2-2-2-2-2---2-2-2-2-2-2-2-2-0h2-2-2-2-2--|
A|--0h2-2-2-2-2-2-2-0h2-2-2-2-2-2---2-2-2-2-2-2-2-2-0h2-2-2-2-2--|
E|--0---0-0-0-0-0-0-0---0-0-0-0-0---0-0-0-0-0-0-0-0-0---0-0-0-0--|

(Guitar 2)
e|--7-7-7-7-7-7-7-7-7-7-7-7-7-7-7---3-3-3-3-3-3-3-3-3-|-3-3-3-3-3-3-----||-3-3-3-3-3-5-5-5-||
B|--7-7-7-7-7-7-7-7-7-7-7-7-7-7-7---3-3-3-3-3-3-3-3-3-|-3-3-3-3-3-3-----||-3-3-3-3-3-5-5-5-||
G|--8-8-8-8-8-8-8-8-8-8-8-8-8-8-8---4-4-4-4-4-4-4-4-4-|-4-4-4-4-4-4----o||-4-4-4-4-4-6-6-6-||
D|----------------------------------------------------|----------------o||-----------------||
A|----------------------------------------------------|-----------------||-----------------||
E|----------------------------------------------------|-----------------||-----------------||

e|--0-0-0-0-0-0-0-0-0-0-0-0-0-0-0---0-0-0-0-0-0-0-0-0-0-0-0-0-0--|
B|--3-3-3-3-3-3-3-3-3-3-3-3-3-3-3---3-3-3-3-3-3-3-3-3-3-3-3-3-3--|
G|--1-1-1-1-1-1-1-1-1-1-1-1-1-1-1---1-1-1-1-1-1-1-1-1-1-1-1-1-1--|
D|---------------------------------------------------------------|
A|---------------------------------------------------------------|
E|---------------------------------------------------------------|

Chorus

Bridge
(Guitar 1) Quietly
e|--2-2-2-2-2-2-2-2-2-2-2-2-2-2-2-3-3-3-3-3-3-3-3-3-3-3-3-3-3-3-3-|    |-0-0-0-0-0-0-0-0-|
B|--4-4-4-4-4-4-4-4-4-4-4-4-4-4-4-3-3-3-3-3-3-3-3-3-3-3-3-3-3-3-3-|    |-2-2-2-2-2-2-2-2-|
G|--4-4-4-4-4-4-4-4-4-4-4-4-4-4-4-4-4-4-4-4-4-4-4-4-4-4-4-4-4-4-4-| x4 |-2-2-2-2-2-2-2-2-|
D|----------------------------------------------------------------|    |-----------------|
A|----------------------------------------------------------------|    |-----------------|
E|----------------------------------------------------------------|    |-----------------|
"Hey...monuments"

e|--2-2-2-2-2-2-2-2-2-2-2-2-2-2-2-|
B|--4-4-4-4-4-4-4-4-4-4-4-4-4-4-4-|
G|--4-4-4-4-4-4-4-4-4-4-4-4-4-4-4-|
D|--------------------------------|
A|--------------------------------|
E|--------------------------------|

e|--3-3-3-3-3-3-3-3-3-3-3-3-3-3-3-3-2-2-2-2-2-2-2-2-2-2-2-2-2-2-2-|    
B|--3-3-3-3-3-3-3-3-3-3-3-3-3-3-3-3-4-4-4-4-4-4-4-4-4-4-4-4-4-4-4-|    
G|--4-4-4-4-4-4-4-4-4-4-4-4-4-4-4-4-4-4-4-4-4-4-4-4-4-4-4-4-4-4-4-| x4 
D|----------------------------------------------------------------|     
A|----------------------------------------------------------------|    
E|----------------------------------------------------------------|    

(Guitar 2) 
e|---|    |-----5---5-------5---5-------5---|    |-----5---5-------5---5-------5---|
B|---|    |---7---7---7---7---7---7---7---7-|    |---3---3---3---3---3---3---3---3-|
G|---| x4 |-4-----------4-----------4-------| x4 |-4-----------4-----------4-------|  Repeat first phrase
D|---|    |---------------------------------|    |---------------------------------|
A|---|    |---------------------------------|    |---------------------------------|
E|---|    |---------------------------------|    |---------------------------------|
                                        
e|--------------------------------------------------------------------------------|
B|--------------------------------------------------------------------------------|
G|-12-------16--------12-------16-------12------14------16------/21------20-------|
D|--------------------------------------------------------------------------------|
A|-10-(x16)-14-(x16)--10-(x16)-14-(x16)-10-(x8)-12-(x8)-14-(x8)-/19-(x8)-18-(x20)-|
E|--------------------------------------------------------------------------------|
                                        (strum twice as fast here)

(Guitar 3)
e|---------------------------------|     |-----------------|     |---------------------------------| 
B|---------------------------------|     |-----------------|     |---------------------------------| 
G|---------------------------------| x 8 |-2-2-2-2-2-2-2-2-| x2  |---------------------------------| 
D|-4-4-4-4-4-4-4-4-4-4-4-4-4-4-4-4-|     |-2-2-2-2-2-2-2-2-|     |-4-4-4-4-4-4-4-4-4-4-4-4-4-4-4-4-|
A|-0h2-2-2-2-2-0h2-2-2-2-2-0h2-2-2-|     |-0-0-0-0-0-0-0-0-|     |-0h2-2-2-2-2-0h2-2-2-2-2-0h2-2-2-|
E|---------------------------------|     |-----------------|     |---------------------------------| 

e|-----------------------------------------------------------|
B|-----------------------------------------------------------|
G|-12-------11--------12-------11-------12-------11----------|
D|-----------------------------------------------------------|
A|-10-(x16)-9--(x16)--10-(x16)-9--(x16)-10-(x16)-9--(x14)----|
E|-----------------------------------------------------------|

Break
(Guitar 2)
e|----|-----0-------0-------0--------|
B|----|-7-------7-------7-------7----|
G|--8-|---8---8---8---8---8---8---8--|
D|----|------------------------------|
A|----|------------------------------|
E|----|------------------------------|

Chorus

Post-Chorus? - Basically the same as the bridge just much louder.
(Guitar 1)
e|--2-2-2-2-2-2-2-2-2-2-2-2-2-2-2-3-3-3-3-3-3-3-3-3-3-3-3-3-3-3-3-|    |-0-0-0-0-0-0-0-0-|
B|--4-4-4-4-4-4-4-4-4-4-4-4-4-4-4-3-3-3-3-3-3-3-3-3-3-3-3-3-3-3-3-|    |-2-2-2-2-2-2-2-2-|
G|--4-4-4-4-4-4-4-4-4-4-4-4-4-4-4-4-4-4-4-4-4-4-4-4-4-4-4-4-4-4-4-| x2 |-2-2-2-2-2-2-2-2-|
D|----------------------------------------------------------------|    |-----------------|
A|----------------------------------------------------------------|    |-----------------|
E|----------------------------------------------------------------|    |-----------------|
"Amen!...monuments"

e|--2-2-2-2-2-2-2-2-2-2-2-2-2-2-2-|
B|--4-4-4-4-4-4-4-4-4-4-4-4-4-4-4-|
G|--4-4-4-4-4-4-4-4-4-4-4-4-4-4-4-|
D|--------------------------------|
A|--------------------------------|
E|--------------------------------|

e|--3-3-3-3-3-3-3-3-3-3-3-3-3-3-3-3-2-2-2-2-2-2-2-2-2-2-2-2-2-2-2-|    
B|--3-3-3-3-3-3-3-3-3-3-3-3-3-3-3-3-4-4-4-4-4-4-4-4-4-4-4-4-4-4-4-|    
G|--4-4-4-4-4-4-4-4-4-4-4-4-4-4-4-4-4-4-4-4-4-4-4-4-4-4-4-4-4-4-4-| x4 
D|----------------------------------------------------------------|     
A|----------------------------------------------------------------|    
E|----------------------------------------------------------------|

(Guitar 2)
e|------------------------------------------------------|
B|------------------------------------------------------|
G|-11------12-------11------12-------14-------11--------|
D|------------------------------------------------------|
A|-9-(x16)-10-(x16)-9-(x16)-10-(x16)-12-(x16)-9-(x16)---|
E|------------------------------------------------------|
                                        
e|--------------------------------------------------------------------------------|
B|--------------------------------------------------------------------------------|
G|-12-------16--------12-------16-------12------14------16------/21------20-------|
D|--------------------------------------------------------------------------------|
A|-10-(x16)-14-(x16)--10-(x16)-14-(x16)-10-(x8)-12-(x8)-14-(x8)-/19-(x8)-18-(x20)-|
E|--------------------------------------------------------------------------------|
                                        (strum twice as fast here)

(Guitar 3)
e|---------------------------------|     |-----------------|     |---------------------------------| 
B|---------------------------------|     |-----------------|     |---------------------------------| 
G|---------------------------------| x4  |-2-2-2-2-2-2-2-2-| x2  |---------------------------------| 
D|-4-4-4-4-4-4-4-4-4-4-4-4-4-4-4-4-|     |-2-2-2-2-2-2-2-2-|     |-4-4-4-4-4-4-4-4-4-4-4-4-4-4-4-4-|
A|-0h2-2-2-2-2-0h2-2-2-2-2-0h2-2-2-|     |-0-0-0-0-0-0-0-0-|     |-0h2-2-2-2-2-0h2-2-2-2-2-0h2-2-2-|
E|---------------------------------|     |-----------------|     |---------------------------------| 

e|-----------------------------------------------------------|
B|-----------------------------------------------------------|
G|-12-------11--------12-------11-------12-------11----------|
D|-----------------------------------------------------------|
A|-10-(x16)-9--(x16)--10-(x16)-9--(x16)-10-(x16)-9--(x14)----|
E|-----------------------------------------------------------|

Break 2
(Guitar 2)
e|----|------0-------0-------0-------0----|    
B|----|--7-------7-------7-------7--------|      
G|--8-|o---8---8---8---8---8---8---8---8--|    
D|----|o----------------------------------| 
A|----|-----------------------------------|    
E|----|-----------------------------------|    

Build-up
(Guitar 1)
e|------5-------5-------5-------5----|
B|----7-------7-------7-------7------|
G|--8-------8-------8-------8--------| x11
D|-----------------------------------| 
A|-----------------------------------|
E|-----------------------------------|    

(Guitar 2)
e|------0-------0-------0-------0----|    |-----5---5-------5---5-------5---|  
B|--7-------7-------7-------7--------|    |---7---7---7---7---7---7---7---7-|    
G|----8---8---8---8---8---8---8---8--|    |-4-----------4-----------4-------| x3
D|-----------------------------------| x8 |---------------------------------|
A|-----------------------------------|    |---------------------------------|
E|-----------------------------------|    |---------------------------------|
  
(Guitar 3)
e|-----------------|    e|---------------------------------| 
B|-----------------|    B|---------------------------------| 
G|-4-4-4-4-4-4-4-4-| x8 G|---------------------------------| x3 
D|-4-4-4-4-4-4-4-4-|    D|-4-4-4-4-4-4-4-4-4-4-4-4-4-4-4-4-|
A|-2-2-2-2-2-2-2-2-|    A|-0h2-2-2-2-2-0h2-2-2-2-2-0h2-2-2-|
E|-----------------|    E|---------------------------------|
  Build..........


Ending
(Guitar 1)
e|-5--5----5-5---5--5--5-5--5\--|   
B|-7--7----7-7---7--7--7-7--7\--|    
G|-8--8----8-8---8--8--8-8--8\--| 
D|------------------------------|    
A|------------------------------|    
E|------------------------------|  

(Guitar 2)
e|-7--7----7-7---7--7--7-7--7\--|   
B|-7--7----7-7---7--7--7-7--7\--|    
G|-8--8----8-8---8--8--8-8--8\--| x4
D|-9--9----9-9---9--9--9-9--9\--|    
A|-9--9----9-9---9--9--9-9--9\--|    
E|-7--7----7-7---7--7--7-7--7\--|

(Guitar 3)
e|-0--0----0-0---0--0--0-0--0\--|   
B|-0--0----0-0---0--0--0-0--0\--|    
G|-4--4----4-4---4--4--4-4--4\--|
D|-4--4----4-4---4--4--4-4--4\--|    
A|-2--2----2-2---2--2--2-2--2\--|    
E|------------------------------|


************************************

| /   slide up
| \   slide down
| h   hammer-on
| p   pull-off
| ~   vibrato
| +   harmonic
| x   Mute note
| b   Bend
| pb  Pre-bend
| br  Bend release
| pbr Pre-bend release
| brb Bend release bend

************************************
 
 
Foo Fighters - The Feast And The Famine :: indexed at Ultimate Guitar.
The Feast And The Famine tabs @ 911Tabs

About the artist behind The Feast And The Famine:

Foo Fighters is an American alternative rock band formed by singer/guitarist Dave Grohl in 1995.[1] Grohl formed the group as a one-man project after the dissolution of his previous band Nirvana in 1994. Prior to the release of Foo Fighters in 1995, Grohl drafted Nate Mendel (bass), William Goldsmith (drums), and Pat Smear (guitar) to complete the group. Goldsmith and Smear left after the recording of the group's second album The Colour and the Shape (1997). They were replaced by Taylor Hawkins and Franz Stahl, respectively, although Stahl left prior to the recording of the group's third album, There Is Nothing Left to Lose (1999).

Chris Shiflett joined as the band's second guitarist after the completion of There is Nothing Left to Lose. The band released its fourth album One by One in 2002. The group followed that release with the two-disc In Your Honor (2005), which was split between acoustic songs and harder-rocking material. Foo Fighters released its sixth album Echoes, Silence, Patience & Grace in 2007. Over the course of the band's career, three of its albums have won Grammy Awards for Best Rock Album, and all six have been nominated for Grammys.

Indexed at Wikipedia.

Show us your talent, perform The Feast And The Famine!

Here you can post a video or audio performance. Tell me more ...
Where can we find your performance? Tell me more ...
Your comment:
Please, log in to post your performance.