Artists by letter: A B C D E F G H I J K L M N O P Q R S T U V W X Y Z 0-9

Stranger Things Have Happened (ver 7) - Foo Fighters


 
Stranger Things Have Happened
FOO FIGHTERS - STRANGER THINGS HAVE HAPPENED (TAB)

This is a tablature of a great acoustic song by Foo Fighters. I decided to tab it
because I didn't find any 100% correct version from the internet.
I've done all the tabbing myself and I believe it's really really close to the original.
Please comment if you think some part should be tabbed differently.
ENJOY!

UPDATED 27.03.2014

h - hammer on
p - pull off
/ - slide
^ - bend
x - muted string

MAIN RIFF

e|------------------------------------------|
B|------------------------------------------|
G|-------2----2--2--------------------------|
D|-------0----0--2------------0----0--0-----|
A|--2-2-----2-------0---------0----0--2-----|
E|--------------------2-2-2------2-------1--|

e|---------------------------------------------|
B|---------------------------------------------|
G|---------------------------------------------| 
D|--------0---0--2-------0---0---0--2------0---|
A|--------2----------------------------0h2-----|
E|-0-0-0----0-------0-0----0---0---------------| REPEAT 7x, then

e|------------------------------------------|
B|------------------------------------------|
G|-------2----2--2--------------------------|
D|-------0----0--2------------0----0--0-----|
A|--2-2-----2-------0---------0----0--2-----|
E|--------------------2-2-2------2-------1--|

e|--------------------------------------------|
B|--------------------------------------------|
G|--------------------------------------------| 
D|--------0---0--2-------0---0-2--------------|
A|--------2---2----------2---2----------------|
E|-0-0-0----0-------0-0----0-----0-0-0-0------|

CHORUS

You were not alone, 	  dear loneliness.

e|-------0--0--0--0--0--0--0---0--0--0--0--0--0--0--0--0--|
B|-------0--0--0--0--0--0--0---0--0--0--0--0--0--0--0--0--|
G|-------4--4--4--4--4--4--4---2--2--2--2--2--2--2--2--2--|
D|-------4--4--4--4--4--4--4---4--4--4--4--4--4--4--4--4--|
A|-------2--2--2--2--2--2--2---4--4--4--4--4--4--4--4--4--|
E|--------------------------------------------------------|

You forgot, but I	 remember this.		    Oh -

e|------0--0--0--0--0--0--0---0--0--0--0--0--0--0--0--0--|
B|------3--3--3--3--3--3--3---0--0--0--0--0--0--0--0--0--|
G|------4--4--4--4--4--4--4---1--1--1--1--1--1--1--1--1--|
D|------5--5--5--5--5--5--5---2--2--2--2--2--2--2--2--2--|
A|------5--5--5--5--5--5--5---2--2--2--2--2--2--2--2--2--|
E|----------------------------0--0--0--0--0--0--0--0--0--|

Stranger, stranger, stranger things have happened I know

e|---2--2--2--2--2--2--2----0--0--0--0--0--0--0--0--0--0-|
B|---3--3--3--3--3--3--3----0--0--0--0--0--0--0--0--0--0-|
G|---2--2--2--2--2--2--2----2--2--2--2--2--2--2--2--2--1-|
D|---0--0--0--0--0--0--0----4--4--4--4--4--4--4--4--3--2-|
A|---0--0--0--0--0--0--0----4--4--4--4--4--4--4--4--3--2-|
E|--------------------------------------------------1--0-|

e|--0--0--0--0---0--0---0--0--0--0--0--0--0--0--0--0--|
B|--0--0--0--0---0--0---0--0--0--0--0--0--0--0--0--0--|
G|--1--1--1--1---2--2---1--1--1--1--1--1--1--1--1--1--|
D|--2--2--2--2---2--2---2--2--2--2--2--2--2--2--2--2--|
A|--2--2--2--2---2--2---2--2--2--2--2--2--2--2--2--2--|
E|--0--0--0--0---0--0---0--0--0--0--0--0--0--0--0--0--|  REPEAT



\\ MAIN RIFF x2 // +

2. GUITAR RIFF

e|---------5-----------5--5/7-----------5----------4----------0----|
B|------3-----------3----------------3-------3----------3----------|
G|---4-----------4----------------4-------------4----------4-------|
D|-----------------------------------------------------------------|
A|-----------------------------------------------------------------|
E|-----------------------------------------------------------------|

e|---------5-----------5--5/7----------5----------4----------4^p0----7---|
B|------3-----------3---------------3-------3----------3-----------3-----|
G|---4-----------4---------------4-------------4----------4--------------|
D|-----------------------------------------------------------------------|
A|-----------------------------------------------------------------------|
E|-----------------------------------------------------------------------|



\\ MAIN RIFF x2 //



\\ MAIN RIFF x2 // +

PRE-CHORUS RIFF

e|---------5-----------5--5/7-----------5----------4----------0----|
B|------3-----------3----------------3-------3----------3----------|
G|---4-----------4----------------4-------------4----------4-------|
D|-----------------------------------------------------------------|
A|-----------------------------------------------------------------|
E|-----------------------------------------------------------------|

e|---------5-----------5--5/7----------5----------4----------4^p2p0------|
B|------3-----------3---------------3-------3----------3------------3-0--|
G|---4-----------4---------------4-------------4----------4--------------|
D|-----------------------------------------------------------------------|
A|-----------------------------------------------------------------------|
E|-----------------------------------------------------------------------|



\\ CHORUS x1 //



\\ MAIN RIFF x4 // +

SOLO

e|------------------------------------------------------------------|
B|-12--12--12--12--12--12--10--11/14--14--14--14--16--16--14--(12)--|
G|-11--11--11--14--14--11---9--11/14--14--14--14--14--14--14--(12)--|
D|--------------------------------16--16--16--16--16--16--16--(14)--|
A|------------------------------------------------------------------|
E|------------------------------------------------------------------|

e|--7---7--7---7--7--7---7---7--7--|
B|--9---9--9--10-10--9---7---9--9--|
G|--9---9--9---9--9--9---9---9--9--|
D|---------------------------------| 
A|---------------------------------|
E|---------------------------------| rest 2 beats

e|-10--10--10--12--12--10-----12---12--12--14--14--12---|
B|-12--12--12--12--12--12-----10---10--10--10--10--10---|
G|-11--11--11--11--11--11-----11---11--11--11--11--11---|
D|------------------------------------------------------|
A|------------------------------------------------------|
E|------------------------------------------------------|

e|---12---12--12--14--14--12---12---12--12--12---|
B|---12---12--12--12--12--12---15---12--15--12---|
G|---13---13--13--13--13--13---13---13--13--13---| 
D|-----------------------------------------------|
A|-----------------------------------------------|
E|-----------------------------------------------| rest 2 beats

e|--------------------------------------7---------------------------------------------|
B|-/10--10--10--10--10-----7------------7-----7---------------------------------------|
G|-/11--11--11--11--11--9--7--9~--7--9-----9--7---------7-----------------------------| 
D|-----------------------------------------------9p7----7--9-9--7-9-7-----------------|
A|---------------------------------------------------9-----------------9--7-------7---|
E|-----------------------------------------------------------------------------10-----| rest 2 beats

e|--10p7------9---------------------------------|
B|-------10p7---10p7---7------------------------|
G|-------------------9---9p7---9p7--------------|
D|---------------------------9-----9p7-9-9-7----|
A|-------------------------------------------9--|
E|----------------------------------------------|

e|---------------------------------------------------------|
B|---------------------------------------------------------|
G|---------------------------------------------------------|
D|--7------------------------4-6-6/7-6--4--7/9-9-9-9-9-9-9-|
A|----9-7----7-7^---5---5h7--------------------------------|
E|--------10----------7------------------------------------|



LAST CHORUS

I  am   not alone, 	  dear loneliness.

e|-------0--0--0--0--0--0--0---0--0--0--0--0--0--0--0--0--|
B|-------0--0--0--0--0--0--0---0--0--0--0--0--0--0--0--0--|
G|-------4--4--4--4--4--4--4---2--2--2--2--2--2--2--2--2--|
D|-------4--4--4--4--4--4--4---4--4--4--4--4--4--4--4--4--|
A|-------2--2--2--2--2--2--2---4--4--4--4--4--4--4--4--4--|
E|--------------------------------------------------------|

I  forgot, but I	 remember this.

e|------0--0--0--0--0--0--0---0--0--0--0--0--0--0--0--0--|
B|------3--3--3--3--3--3--3---0--0--0--0--0--0--0--0--0--|
G|------4--4--4--4--4--4--4---1--1--1--1--1--1--1--1--1--|
D|------5--5--5--5--5--5--5---2--2--2--2--2--2--2--2--2--|
A|------5--5--5--5--5--5--5---2--2--2--2--2--2--2--2--2--|
E|----------------------------0--0--0--0--0--0--0--0--0--|

You were not alone, 	  dear loneliness.

e|-------0--0--0--0--0--0--0---0--0--0--0--0--0--0--0--0--|
B|-------0--0--0--0--0--0--0---0--0--0--0--0--0--0--0--0--|
G|-------4--4--4--4--4--4--4---2--2--2--2--2--2--2--2--2--|
D|-------4--4--4--4--4--4--4---4--4--4--4--4--4--4--4--4--|
A|-------2--2--2--2--2--2--2---4--4--4--4--4--4--4--4--4--|
E|--------------------------------------------------------|

You  forgot, but I	 remember this.		    Oh -

e|------0--0--0--0--0--0--0---0--0--0--0--0--0--0--0--0--|
B|------3--3--3--3--3--3--3---0--0--0--0--0--0--0--0--0--|
G|------4--4--4--4--4--4--4---1--1--1--1--1--1--1--1--1--|
D|------5--5--5--5--5--5--5---2--2--2--2--2--2--2--2--2--|
A|------5--5--5--5--5--5--5---2--2--2--2--2--2--2--2--2--|
E|----------------------------0--0--0--0--0--0--0--0--0--|

Stranger, stranger, stranger things have happened I know

e|---2--2--2--2--2--2--2----0--0--0--0--0--0--0--0--0--0-|
B|---3--3--3--3--3--3--3----0--0--0--0--0--0--0--0--0--0-|
G|---2--2--2--2--2--2--2----2--2--2--2--2--2--2--2--2--1-|
D|---0--0--0--0--0--0--0----4--4--4--4--4--4--4--4--3--2-|
A|---0--0--0--0--0--0--0----4--4--4--4--4--4--4--4--3--2-|
E|--------------------------------------------------1--0-|

e|--0--0--0--0---0--0---0--0--0--0--0--0--0--0--0--0--|
B|--0--0--0--0---0--0---0--0--0--0--0--0--0--0--0--0--|
G|--1--1--1--1---2--2---1--1--1--1--1--1--1--1--1--1--|
D|--2--2--2--2---2--2---2--2--2--2--2--2--2--2--2--2--|
A|--2--2--2--2---2--2---2--2--2--2--2--2--2--2--2--2--|
E|--0--0--0--0---0--0---0--0--0--0--0--0--0--0--0--0--|



\\ CHORUS x1 //

END.


 
 
Foo Fighters - Stranger Things Have Happened :: indexed at Ultimate Guitar.
Stranger Things Have Happened tabs @ 911Tabs

About the artist behind Stranger Things Have Happened:

Foo Fighters is an American alternative rock band formed by singer/guitarist Dave Grohl in 1995.[1] Grohl formed the group as a one-man project after the dissolution of his previous band Nirvana in 1994. Prior to the release of Foo Fighters in 1995, Grohl drafted Nate Mendel (bass), William Goldsmith (drums), and Pat Smear (guitar) to complete the group. Goldsmith and Smear left after the recording of the group's second album The Colour and the Shape (1997). They were replaced by Taylor Hawkins and Franz Stahl, respectively, although Stahl left prior to the recording of the group's third album, There Is Nothing Left to Lose (1999).

Chris Shiflett joined as the band's second guitarist after the completion of There is Nothing Left to Lose. The band released its fourth album One by One in 2002. The group followed that release with the two-disc In Your Honor (2005), which was split between acoustic songs and harder-rocking material. Foo Fighters released its sixth album Echoes, Silence, Patience & Grace in 2007. Over the course of the band's career, three of its albums have won Grammy Awards for Best Rock Album, and all six have been nominated for Grammys.

Indexed at Wikipedia.

Show us your talent, perform Stranger Things Have Happened!

Here you can post a video or audio performance. Tell me more ...
Where can we find your performance? Tell me more ...
Your comment:
Please, log in to post your performance.