Artists by letter: A B C D E F G H I J K L M N O P Q R S T U V W X Y Z 0-9

 
Statues
-------------------------------------------------------------------------------
                                 STATUES - Foo Fighters
-------------------------------------------------------------------------------

Intro:           (hold)*                   (hold)
e|-----------------|-----------------|-----------------|-----------------|
B|-----------------|-----------------|-----------------|-13~---15~-------|
G|-14~---------14b-|-r/h12~--------14|b-------------r--|-----------------|
D|-----------------|-----------14h12-|-----------------|-----------------|
A|-----------------|-----------------|-----------------|-----------------|
E|-----------------|-----------------|-----------------|-----------------|
 |                                                                       |
e|-----------------|-----------------|-----------------|-----------------|
B|-----------------|-3---------------|-0---3-----0-----|-----1-----------|
G|-----2-----------|-2-----0---------|---2---2-----0---|-3-0---3---3-----|
D|-4-2---4---2-0---|-3-----2---------|-------0---------|-3-------3-------|
A|-5-----0---------|-3-----3---------|-----------------|-------3---------|
E|-----------------|-----------------|-3-----------3---|-------------1---|

*release bend and pull-off

e|-----------------|-----------------|-----------------|-----------------|
B|-----------------|-----------------|-----------------|-----------------|
G|-14~---------14b-|-r/h12~----------|-----------------|-----------------|
D|-----------------|-----------------|-----------------|-----------------|
A|-----------------|-----------------|-----------------|-----------------|
E|-----------------|-----------------|-----------------|-----------------|
 |                                                                       |
e|-----------------|-----------------|-----------------|-----------------|
B|-----------------|-3---------------|-3---3---3---3---|-3---3---3---3---|
G|-----2-----------|-2-----0---------|-4---4---4---4---|-4---4---4---4---|
D|-4-2---4---2-0---|-3-----2---------|---5---5---5---5-|---5---5---5---5-|
A|-5-----0---------|-3-----3---------|-------5---------|-------5---------|
E|-----------------|-----------------|-3---------------|-3---------------|

Verse:
e|-----------------|-----------------|-----------------|-----------------|
B|-3---3---3---3---|-1---1---1---1---|-0---0---0---0---|-----------------|
G|-4---4---4---4---|-2---2---2---2---|-0---0---0---0---|-3---3---3---3---|
D|---5---5---5---5-|---3---3---3---3-|---2---2---2---2-|---3---3---3---3-| x2
A|-------5---------|-------3---------|-------2---------|-6---------------|
E|-3-----------3---|-1---------------|-0-----------0---|---------6-------|

Chorus:
e|-----------------|-----------------|-----------------|-----------------|
B|-----------------|-3---------------|-0---3-----0-----|-0---3---0-------|
G|-----2-----------|-2-----0-0-------|---2---2-----0---|---2---2---0-----|
D|-4-2---4---2-0---|-3-----2-2-------|-------0---------|-------0---------|
A|-5-----0---------|-3-----3-3-------|-----------------|-----------------|
E|-----------------|-----------------|-3-----------3---|-3-----------3---|

e|-----------------|-----------------|-----------------|-----------------|
B|-----------------|-3---------------|-3---3---3---3---|-3---3---3---3---|
G|-----2-----------|-2-----0-0-------|-4---4---4---4---|-4---4---4---4---|
D|-4-2---4---2-0---|-3-----2-2-------|---5---5---5---5-|---5---5---5---5-|
A|-5-----0---------|-3-----3-3-------|-------5---------|-------5---------|
E|-----------------|-----------------|-3---------------|-3---------------|

Verse

Chorus:
e|-----------------|-----------------|-----------------|-----------------|
B|-----------------|-3---------------|-0---3-----0-----|-0---3---0-------|
G|-----2-----------|-2-----0-0-------|---2---2-----0---|---2---2---0-----|
D|-4-2---4---2-0---|-3-----2-2-------|-------0---------|-------0---------|
A|-5-----0---------|-3-----3-3-------|-----------------|-----------------|\
E|-----------------|-----------------|-3-----------3---|-3-----------3---| \
                                                                            x2
e|-----------------|-----------------|-----------------|-----------------| /
B|-----------------|-3---------------|-0---3-----0-----|-----1-----------|/
G|-----2-----------|-2-----0-0-------|---2---2-----0---|-3-0---3---3-----|
D|-4-2---4---2-0---|-3-----2-2-------|-------0---------|-3-------3-------|
A|-5-----0---------|-3-----3-3-------|-----------------|-------3---------|
E|-----------------|-----------------|-3-----------3---|-------------1---|

Bridge:
e|-0---0-0---0-0-0-|-------3---3-3-0-|-3---3-3---3-3-3-|-2---2-0---2-2-0-|
B|-1---1-1---1-1-1-|-1---3-1---1-1-1-|-3---3-3---3-3-3-|-3---3-3---3-3-3-|
G|-2---2-2---2-2-2-|-0---0-0---0-0-0-|-0---0-0---0-0-0-|-2---2-2---2-2-2-| x2
D|-2---2-2---2-2-2-|-2---2-2---2-2-2-|-0---0-0---0-0-0-|-0---0-0---0-0-0-|
A|-0---0-0---0-0-0-|-3---3-3---3-3-3-|-2---2-2---2-2-2-|-----------------|
E|-----------------|-----------------|-3---3-3---3-3-3-|-----------------|

Solo:
e|-----------------|-----------------|-------3-------------|-------0---2-----|
B|-1---------1--3--|-5------/5--3-1--|-3---------3---------|-----3-----------|
G|-2---------2--4--|-5------/5--4-2--|-4---4-------4-4h5p4-|-2---------------|
D|-----------------|-----------------|---------------------|-----------------|
A|-----------------|-----------------|---------------------|-----------------|
E|-----------------|-----------------|---------------------|-----------------|

(clean eletric comes back in with chords)
  Am                 C                 G
e|-----------------|-----------------|-------3-------------|-------3---------|
B|-1---------1--3--|-5------/5--3-1--|-3---------3-0h1p0---|-3---3-----3-----|
G|-2---------2--4--|-5------/5--4-2--|-4---4------------2p0|-0-----------0---|
D|-----------------|-----------------|---------------------|-----------------|
A|-----------------|-----------------|---------------------|-----------------|
E|-----------------|-----------------|---------------------|-----------------|

Interlude (intro x2 + this guitar):
e|-------5---------|-------3---------|-----------------|-------1---------|
B|-----3-----------|-----------------|-----3-3---------|-------3---------|
G|-----------------|-----0-----------|-----0-2---------|-----0-3---3-----| x2
D|-----------------|-----------------|-------0---------|-----------------|
A|-----------------|-----------------|-----------------|-----------------|
E|-----------------|-----------------|-----------------|-----------------|

Second time lead plays:
e|-----------------|-----------------|-----------------|-----------------|
B|-----------------|-----------------|-----------------|-13~-------------|
G|-14~---------14b-|-r/h12~--------14|b-------------r--|-------14~-------|
D|-----------------|-----------14h12-|-----------------|-----------------|
A|-----------------|-----------------|-----------------|-----------------|
E|-----------------|-----------------|-----------------|-----------------|

Second chorus x2, end with:
e|-----------------|-----------------|-----------------|-----------------|
B|-----------------|-3---------------|-0---------------|-----------------|
G|-----2-----------|-2-----0-0-------|-0---------------|-----------------|
D|-4-2---4---2-0---|-3-----2-2-------|-0---------------|-----------------|
A|-5-----0---------|-3-----3-3-------|-----------------|-----------------|
E|-----------------|-----------------|-3---------------|-----------------|

| /  slide up
| \  slide down
| h  hammer-on
| p  pull-off
| ~  vibrato
| +  harmonic
| x  Mute note
===============================================================================

 
 
Foo Fighters - Statues :: indexed at Ultimate Guitar.
Statues tabs @ 911Tabs

About the artist behind Statues:

Foo Fighters is an American alternative rock band formed by singer/guitarist Dave Grohl in 1995.[1] Grohl formed the group as a one-man project after the dissolution of his previous band Nirvana in 1994. Prior to the release of Foo Fighters in 1995, Grohl drafted Nate Mendel (bass), William Goldsmith (drums), and Pat Smear (guitar) to complete the group. Goldsmith and Smear left after the recording of the group's second album The Colour and the Shape (1997). They were replaced by Taylor Hawkins and Franz Stahl, respectively, although Stahl left prior to the recording of the group's third album, There Is Nothing Left to Lose (1999).

Chris Shiflett joined as the band's second guitarist after the completion of There is Nothing Left to Lose. The band released its fourth album One by One in 2002. The group followed that release with the two-disc In Your Honor (2005), which was split between acoustic songs and harder-rocking material. Foo Fighters released its sixth album Echoes, Silence, Patience & Grace in 2007. Over the course of the band's career, three of its albums have won Grammy Awards for Best Rock Album, and all six have been nominated for Grammys.

Indexed at Wikipedia.

Show us your talent, perform Statues!

Here you can post a video or audio performance. Tell me more ...
Where can we find your performance? Tell me more ...
Your comment:
Please, log in to post your performance.