Artists by letter: A B C D E F G H I J K L M N O P Q R S T U V W X Y Z 0-9

 
Pretender
The Pretender " Foo Fighters
Tabbed by: Mattkoepps
E-mail: [email protected]
Tuning: Standard

[Intro] (3x)
e|-----------7---------|--------------------|
B|--------10---10------|-----10---10---10---|
G|------9---------9----|------9----9----9---|
D|---10-------------10-|-----10---10---10---|
A|-0-------------------|-0-----------0----9-|
E|---------------------|---7----8-----------|

e|----------------------|-------------0---------|             |-------------|
B|----------10----------|----------10---10------|             |----------10-|
G|--------9----9--------|--------9---------9----| 3rd Ending: |--------9----|
D|-----10---------------|-----10-------------10-|             |-----10------|
A|-(9)-----------9brb-8-|-(8)-------------------|             |-(8)---------|
E|----------------------|-----------------------|             |-------------|

e|-0-0-2-0-3-0-5-0-|-L-0-2-0-3-0-5-|
B|-5-5-5-5-5-5-5-5-|-L-5-5-5-5-5-5-|
G|-----------------|---------------|
D|-----------------|---------------|
A|-----------------|---------------|
E|-----------------|---------------|

[Verse]
  Guitar 1
e|-0-0-2-0-3-0-5-0-|-L-0-2-0-3-0-5-|-0-0-2-0-3-0-5-0-|-L-0-2-0-3-0-5-0-|     |  
B|-5-5-5-5-5-5-5-5-|-L-5-5-5-5-5-5-|-5-5-5-5-5-5-5-5-|-L-5-5-5-5-5-5-5-|     |
G|-----------------|---------------|-----------------|-----------------|     |
D|-----------------|---------------|-----------------|-----------------|     |
A|-----------------|---------------|-----------------|-----------------|     |
E|-----------------|---------------|-----------------|-----------------|     |
                                                                             |
 |Guitar 2                                                                   |
e|-----------------|---------------|-----------------|------------------|    |
B|-1-1---------1-1-|-1-1-----------|-1-1---------1-1-|-1-1--------------|    |
G|-2-2---------2-2-|-2-2-----------|-2-2---------2-2-|-2-2--------------|    |
D|-2-2---------2-2-|-2-2-----------|-2-2---------2-2-|-2-2--------------|    |
A|-0-0---------0-0-|-0-0-----------|-0-0---------0-0-|-0-0--------------|    |
E|-----------------|---------------|-----------------|------------------|    |
                                                                           (3x)
e|-0-0-2-0-3-0-5-0-|-L-0-2-0-3-0-5-|-0-0-2-0-3-0-5-0-|-L-0-2-0-3-0-5-0-|     |
B|-5-5-5-5-5-5-5-5-|-L-5-5-5-5-5-5-|-5-5-5-5-5-5-5-5-|-L-5-5-5-5-5-5-5-|     |
G|-----------------|---------------|-----------------|-----------------|     |
D|-----------------|---------------|-----------------|-----------------|     |
A|-----------------|---------------|-----------------|-----------------|     |
E|-----------------|---------------|-----------------|-----------------|     |
|                                                                            |
e|-----------------|---------------|-----------------|-----------------|     |
B|-3-3---------3-3-|-3-3-----------|-1-1---------1-1-|-1-1-------------|     |
G|-2-2---------2-2-|-2-2-----------|-0-0---------0-0-|-0-0-------------|     |
D|-0-0---------0-0-|-0-0-----------|-3-3---------3-3-|-3-3-------------|     |
A|-0-0---------0-0-|-0-0-----------|-3-3---------3-3-|-3-3-------------|     |
E|-2-2---------2-2-|-2-2-----------|-----------------|-----------------|     |

  Guitar 1
e|-0-0-2-0-3-0-5-0-|-L-0-2-0-3-0-5-|-0-0-2-0-3-0-5-0-|-L-0-2-0-3-0-5-0-|
B|-5-5-5-5-5-5-5-5-|-L-5-5-5-5-5-5-|-5-5-5-5-5-5-5-5-|-L-5-5-5-5-5-5-5-|
G|-----------------|---------------|-----------------|-----------------|
D|-----------------|---------------|-----------------|-----------------|
A|-----------------|---------------|-----------------|-----------------|
E|-----------------|---------------|-----------------|-----------------|

 |Guitar 2
e|-----------------|---------------|-----------------|-----------------|
B|-1-1---------1-1-|-1-1-----------|-1-1---------1-1-|-1-1-------------|
G|-2-2---------2-2-|-2-2-----------|-2-2---------2-2-|-2-2-------------|
D|-2-2---------2-2-|-2-2-----------|-2-2---------2-2-|-2-2-------------|
A|-0-0---------0-0-|-0-0-----------|-0-0---------0-0-|-0-0-------------|
E|-----------------|---------------|-----------------|-----------------|

 |Guitar 3 (pm)
e|---------------------------------------------------------------------|
B|-1-1-1-1-1-1-1-1-|-1-1-1-1-1-1-1-|-1-1-1-1-1-1-1-1-|-1-1-1-1-1-1-1-1-|
G|-2-2-2-2-2-2-2-2-|-2-2-2-2-2-2-2-|-2-2-2-2-2-2-2-2-|-2-2-2-2-2-2-2-2-|
D|-2-2-2-2-2-2-2-2-|-2-2-2-2-2-2-2-|-2-2-2-2-2-2-2-2-|-2-2-2-2-2-2-2-2-|
A|-0-0-0-0-0-0-0-0-|-0-0-0-0-0-0-0-|-0-0-0-0-0-0-0-0-|-0-0-0-0-0-0-0-0-|
E|---------------------------------------------------------------------|

e|-0-0-2-0-3-0-5-0-|-L-0-2-0-3-0-5-|-0-0-2-0-3-0-5-0-|-L-0-2-0-3-0-5-0-|     
B|-5-5-5-5-5-5-5-5-|-L-5-5-5-5-5-5-|-5-5-5-5-5-5-5-5-|-L-5-5-5-5-5-5-5-|     
G|-----------------|---------------|-----------------|-----------------|     
D|-----------------|---------------|-----------------|-----------------|     
A|-----------------|---------------|-----------------|-----------------|     
E|-----------------|---------------|-----------------|-----------------|     
|                                                                                
e|-----------------|---------------|-----------------|-----------------|     
B|-3-3---------3-3-|-3-3-----------|-1-1---------1-1-|-1-1-------------|     
G|-2-2---------2-2-|-2-2-----------|-0-0---------0-0-|-0-0-------------|     
D|-0-0---------0-0-|-0-0-----------|-3-3---------3-3-|-3-3-------------|     
A|-0-0---------0-0-|-0-0-----------|-3-3---------3-3-|-3-3-------------|     
E|-2-2---------2-2-|-2-2-----------|-----------------|-----------------|     
 |
e|---------------------------------------------------------------------|
B|-3-3-3-3-3-3-3-3-|-3-3-3-3-3-3-3-|-1-1-1-1-1-1-1-1-|-1-1-1-1-1-1-1-1-|
G|-2-2-2-2-2-2-2-2-|-2-2-2-2-2-2-2-|-0-0-0-0-0-0-0-0-|-0-0-0-0-0-0-0-0-|
D|-0-0-0-0-0-0-0-0-|-0-0-0-0-0-0-0-|-3-3-3-3-3-3-3-3-|-3-3-3-3-3-3-3-3-|
A|-0-0-0-0-0-0-0-0-|-0-0-0-0-0-0-0-|-3-3-3-3-3-3-3-3-|-3-3-3-3-3-3-3-3-|
E|-2-2-2-2-2-2-2-2-|-2-2-2-2-2-2-2-|-----------------|-----------------|

  Guitar 1
e|-----------------------------------------|
B|-----------------------------------------|
G|-7-7-7-7-9-9-9-9-11-11-11-11-12-12-12-12-|
D|-x-x-x-x-x-x-x-x--x--x--x--x--x--x--x--x-|
A|-5-5-5-5-7-7-7-7--9--9--9--9-10-10-10-10-|
E|-----------------------------------------|
 | Guitar 2
e|-----------------------------------------|
B|-----------------------------------------|
G|-7-7-7-7-9-9-9-9-11-11-11-11-12-12-12-12-|
D|-x-x-x-x-x-x-x-x--x--x--x--x--x--x--x--x-|
A|-5-5-5-5-7-7-7-7--9--9--9--9-10-10-10-10-|
E|-----------------------------------------|

[Chorus] (2x)
  Guitar 1
e|-------------------------|-------------------------|
B|-10-10-10-10-10-10-10-10-|-10-10-10-10-10-10-10-10-|
G|--9--9--9--9--9--9--9--9-|--9--9--9--9--9--9--9--9-|
D|-10-10-10-10-10-10-10-10-|-10-10-10-10-10-10-10-10-|
A|-------------------------|-------------------------|
E|-------------------------|-------------------------|

 |Guitar 2
e|-------------------------|-------------------------|
B|--1--1--1--1--1--1--1--1-|--1--1--1--1--1--1--1--1-|
G|--2--2--2--2--2--2--2--2-|--2--2--2--2--2--2--2--2-|
D|--2--2--2--2--2--2--2--2-|--2--2--2--2--2--2--2--2-|
A|--0--0--0--0--0--0--0--0-|--0--0--0--0--0--0--0--0-|
E|---------------------------------------------------|

e|-------------------------|-------------------------|
B|-10-10-10-10-10-10-10-10-|-10-10-10-10-10-10-10-10-|
G|--9--9--9--9--9--9--9--9-|--9--9--9--9--9--9--9--9-|
D|-10-10-10-10-10-10-10-10-|-10-10-10-10-10-10-10-10-|
A|--0--0--x--x--x--x--x--x-|--x--x--0--0--0--0--9--9-|
E|--------7--7--7--7--8--8-|--8--8-------------------|
 |
e|-------------------------|-------------------------|
B|--1--1--1--1--1--1--1--1-|--1--1--1--1--1--1--3--L-|
G|--2--2--2--2--2--2--2--2-|--2--2--2--2--2--2--2--L-|
D|--2--2--2--2--2--2--2--2-|--2--2--2--2--2--2--0--L-|
A|--0--0--0--0--0--0--0--0-|--0--0--0--0--0--0--0----|
E|-------------------------|--------------------2--L-|

e|-------------------------|-------------------------|
B|-10-10-10-10-10-10-10-10-|-10-10-10-10-10-10-10-10-|
G|--9--9--9--9--9--9--9--9-|--9--9--9--9--9--9--9--9-|
D|-10-10-10-10-10-10-10-10-|-10-10-10-10-10-10-10-10-|
A|--9--9--9--9--9--9--9--9-|--9--9--9--9--9--9--9--9-|
E|-------------------------|-------------------------|
 |
e|--L------------------------------------------------|
B|--L--3--3--3--3--3--3--3-|--3--3--3--3--3--3--3--3-|
G|--L--2--2--2--2--2--2--2-|--2--2--2--2--2--2--2--2-|
D|--L--0--0--0--0--0--0--0-|--0--0--0--0--0--0--0--0-|
A|--L--0--0--0--0--0--0--0-|--0--0--0--0--0--0--0--0-|
E|--L--2--2--2--2--2--2--2-|--2--2--2--2--2--2--2--2-|

e|-------------------------|-------------------------|
B|-10-10-10-10-10-10-10-10-|-10-10-10-10-10-10-10-10-|
G|--9--9--9--9--9--9--9--9-|--9--9--9--9--9--9--9--9-|
D|-10-10-10-10-10-10-10-10-|-10-10-10-10-10-10-10-10-|
A|--8--8--8--8--8--8--8--8-|--8--8--8--8--8--8--8--8-|
E|-------------------------|-------------------------|
 |
e|-------------------------|-------------------------|
B|--1--1--1--1--1--1--1--1-|--1--1--1--1--1--1--1--1-|
G|--0--0--0--0--0--0--0--0-|--0--0--0--0--0--0--0--0-|
D|--3--3--3--3--3--3--3--3-|--3--3--3--3--3--3--3--3-|
A|--3--3--3--3--3--3--3--3-|--3--3--3--3--3--3--3--3-|
E|-------------------------|-------------------------|

e|-----------------|---------------|
B|-----------------|---------------|
G|-----------------|---------------|
D|-2-2-4---5---7-2-|-L-2-4---5---7-|
A|-0-0-0-0-0-0-0-0-|-L-0-0-0-0-0-0-|
E|-----------------|---------------|

[Verse]
  Guitar 1
e|-0-0-2-0-3-0-5-0-|-L-0-2-0-3-0-5-|-0-0-2-0-3-0-5-0-|-L-0-2-0-3-0-5-0-|       
B|-5-5-5-5-5-5-5-5-|-L-5-5-5-5-5-5-|-5-5-5-5-5-5-5-5-|-L-5-5-5-5-5-5-5-|     
G|-----------------|---------------|-----------------|-----------------|     
D|-----------------|---------------|-----------------|-----------------|     
A|-----------------|---------------|-----------------|-----------------|     
E|-----------------|---------------|-----------------|-----------------| 
    
 |Guitar 2                                                                   
e|-----------------|---------------|-----------------|------------------|    
B|-1-1---------1-1-|-1-1-----------|-1-1---------1-1-|-1-1--------------|   
G|-2-2---------2-2-|-2-2-----------|-2-2---------2-2-|-2-2--------------|   
D|-2-2---------2-2-|-2-2-----------|-2-2---------2-2-|-2-2--------------|   
A|-0-0---------0-0-|-0-0-----------|-0-0---------0-0-|-0-0--------------|   
E|-----------------|---------------|-----------------|------------------|   
                                                                           
e|-0-0-2-0-3-0-5-0-|-L-0-2-0-3-0-5-|-0-0-2-0-3-0-5-0-|-L-0-2-0-3-0-5-0-|     
B|-5-5-5-5-5-5-5-5-|-L-5-5-5-5-5-5-|-5-5-5-5-5-5-5-5-|-L-5-5-5-5-5-5-5-|     
G|-----------------|---------------|-----------------|-----------------|     
D|-----------------|---------------|-----------------|-----------------|     
A|-----------------|---------------|-----------------|-----------------|     
E|-----------------|---------------|-----------------|-----------------|     
|                                                                            
e|-----------------|---------------|-----------------|-----------------|     
B|-3-3---------3-3-|-3-3-----------|-1-1---------1-1-|-1-1-------------|     
G|-2-2---------2-2-|-2-2-----------|-0-0---------0-0-|-0-0-------------|     
D|-0-0---------0-0-|-0-0-----------|-3-3---------3-3-|-3-3-------------|     
A|-0-0---------0-0-|-0-0-----------|-3-3---------3-3-|-3-3-------------|     
E|-2-2---------2-2-|-2-2-----------|-----------------|-----------------|     
  
  Guitar 1
e|-0-0-2-0-3-0-5-0-|-L-0-2-0-3-0-5-|-0-0-2-0-3-0-5-0-|-L-0-2-0-3-0-5-0-|
B|-5-5-5-5-5-5-5-5-|-L-5-5-5-5-5-5-|-5-5-5-5-5-5-5-5-|-L-5-5-5-5-5-5-5-|
G|-----------------|---------------|-----------------|-----------------|
D|-----------------|---------------|-----------------|-----------------|
A|-----------------|---------------|-----------------|-----------------|
E|-----------------|---------------|-----------------|-----------------|
 |Guitar 2
e|-----------------|---------------|-----------------|-----------------|
B|-1-1---------1-1-|-1-1-----------|-1-1---------1-1-|-1-1-------------|
G|-2-2---------2-2-|-2-2-----------|-2-2---------2-2-|-2-2-------------|
D|-2-2---------2-2-|-2-2-----------|-2-2---------2-2-|-2-2-------------|
A|-0-0---------0-0-|-0-0-----------|-0-0---------0-0-|-0-0-------------|
E|-----------------|---------------|-----------------|-----------------|

 |Guitar 3 (pm)
e|---------------------------------------------------------------------|
B|-1-1-1-1-1-1-1-1-|-1-1-1-1-1-1-1-|-1-1-1-1-1-1-1-1-|-1-1-1-1-1-1-1-1-|
G|-2-2-2-2-2-2-2-2-|-2-2-2-2-2-2-2-|-2-2-2-2-2-2-2-2-|-2-2-2-2-2-2-2-2-|
D|-2-2-2-2-2-2-2-2-|-2-2-2-2-2-2-2-|-2-2-2-2-2-2-2-2-|-2-2-2-2-2-2-2-2-|
A|-0-0-0-0-0-0-0-0-|-0-0-0-0-0-0-0-|-0-0-0-0-0-0-0-0-|-0-0-0-0-0-0-0-0-|
E|---------------------------------------------------------------------|

e|-0-0-2-0-3-0-5-0-|-L-0-2-0-3-0-5-|-0-0-2-0-3-0-5-0-|-L-0-2-0-3-0-5-0-|     
B|-5-5-5-5-5-5-5-5-|-L-5-5-5-5-5-5-|-5-5-5-5-5-5-5-5-|-L-5-5-5-5-5-5-5-|     
G|-----------------|---------------|-----------------|-----------------|     
D|-----------------|---------------|-----------------|-----------------|     
A|-----------------|---------------|-----------------|-----------------|     
E|-----------------|---------------|-----------------|-----------------|     
|                                                                                
e|-----------------|---------------|-----------------|-----------------|     
B|-3-3---------3-3-|-3-3-----------|-1-1---------1-1-|-1-1-------------|     
G|-2-2---------2-2-|-2-2-----------|-0-0---------0-0-|-0-0-------------|     
D|-0-0---------0-0-|-0-0-----------|-3-3---------3-3-|-3-3-------------|     
A|-0-0---------0-0-|-0-0-----------|-3-3---------3-3-|-3-3-------------|     
E|-2-2---------2-2-|-2-2-----------|-----------------|-----------------|     
 |
e|---------------------------------------------------------------------|
B|-3-3-3-3-3-3-3-3-|-3-3-3-3-3-3-3-|-1-1-1-1-1-1-1-1-|-1-1-1-1-1-1-1-1-|
G|-2-2-2-2-2-2-2-2-|-2-2-2-2-2-2-2-|-0-0-0-0-0-0-0-0-|-0-0-0-0-0-0-0-0-|
D|-0-0-0-0-0-0-0-0-|-0-0-0-0-0-0-0-|-3-3-3-3-3-3-3-3-|-3-3-3-3-3-3-3-3-|
A|-0-0-0-0-0-0-0-0-|-0-0-0-0-0-0-0-|-3-3-3-3-3-3-3-3-|-3-3-3-3-3-3-3-3-|
E|-2-2-2-2-2-2-2-2-|-2-2-2-2-2-2-2-|-----------------|-----------------|

  Guitar 1
e|-----------------------------------------|
B|-----------------------------------------|
G|-7-7-7-7-9-9-9-9-11-11-11-11-12-12-12-12-|
D|-x-x-x-x-x-x-x-x--x--x--x--x--x--x--x--x-|
A|-5-5-5-5-7-7-7-7--9--9--9--9-10-10-10-10-|
E|-----------------------------------------|
 | Guitar 2
e|-----------------------------------------|
B|-----------------------------------------|
G|-7-7-7-7-9-9-9-9-11-11-11-11-12-12-12-12-|
D|-x-x-x-x-x-x-x-x--x--x--x--x--x--x--x--x-|
A|-5-5-5-5-7-7-7-7--9--9--9--9-10-10-10-10-|
E|-----------------------------------------|

[Chorus] (2x)
  Guitar 1
e|-------------------------|-------------------------|
B|-10-10-10-10-10-10-10-10-|-10-10-10-10-10-10-10-10-|
G|--9--9--9--9--9--9--9--9-|--9--9--9--9--9--9--9--9-|
D|-10-10-10-10-10-10-10-10-|-10-10-10-10-10-10-10-10-|
A|-------------------------|-------------------------|
E|-------------------------|-------------------------|

 |Guitar 2
e|-------------------------|-------------------------|
B|--1--1--1--1--1--1--1--1-|--1--1--1--1--1--1--1--1-|
G|--2--2--2--2--2--2--2--2-|--2--2--2--2--2--2--2--2-|
D|--2--2--2--2--2--2--2--2-|--2--2--2--2--2--2--2--2-|
A|--0--0--0--0--0--0--0--0-|--0--0--0--0--0--0--0--0-|
E|---------------------------------------------------|

e|-------------------------|-------------------------|
B|-10-10-10-10-10-10-10-10-|-10-10-10-10-10-10-10-10-|
G|--9--9--9--9--9--9--9--9-|--9--9--9--9--9--9--9--9-|
D|-10-10-10-10-10-10-10-10-|-10-10-10-10-10-10-10-10-|
A|--0--0--x--x--x--x--x--x-|--x--x--0--0--0--0--9--9-|
E|--------7--7--7--7--8--8-|--8--8-------------------|
 |
e|-------------------------|-------------------------|
B|--1--1--1--1--1--1--1--1-|--1--1--1--1--1--1--3--L-|
G|--2--2--2--2--2--2--2--2-|--2--2--2--2--2--2--2--L-|
D|--2--2--2--2--2--2--2--2-|--2--2--2--2--2--2--0--L-|
A|--0--0--0--0--0--0--0--0-|--0--0--0--0--0--0--0----|
E|-------------------------|--------------------2--L-|

e|-------------------------|-------------------------|
B|-10-10-10-10-10-10-10-10-|-10-10-10-10-10-10-10-10-|
G|--9--9--9--9--9--9--9--9-|--9--9--9--9--9--9--9--9-|
D|-10-10-10-10-10-10-10-10-|-10-10-10-10-10-10-10-10-|
A|--9--9--9--9--9--9--9--9-|--9--9--9--9--9--9--9--9-|
E|-------------------------|-------------------------|
 |
e|--L------------------------------------------------|
B|--L--3--3--3--3--3--3--3-|--3--3--3--3--3--3--3--3-|
G|--L--2--2--2--2--2--2--2-|--2--2--2--2--2--2--2--2-|
D|--L--0--0--0--0--0--0--0-|--0--0--0--0--0--0--0--0-|
A|--L--0--0--0--0--0--0--0-|--0--0--0--0--0--0--0--0-|
E|--L--2--2--2--2--2--2--2-|--2--2--2--2--2--2--2--2-|

e|-------------------------|-------------------------|
B|-10-10-10-10-10-10-10-10-|-10-10-10-10-10-10-10-10-|
G|--9--9--9--9--9--9--9--9-|--9--9--9--9--9--9--9--9-|
D|-10-10-10-10-10-10-10-10-|-10-10-10-10-10-10-10-10-|
A|--8--8--8--8--8--8--8--8-|--8--8--8--8--8--8--8--8-|
E|-------------------------|-------------------------|
 |
e|-------------------------|-------------------------|
B|--1--1--1--1--1--1--1--1-|--1--1--1--1--1--1--1--1-|
G|--0--0--0--0--0--0--0--0-|--0--0--0--0--0--0--0--0-|
D|--3--3--3--3--3--3--3--3-|--3--3--3--3--3--3--3--3-|
A|--3--3--3--3--3--3--3--3-|--3--3--3--3--3--3--3--3-|
E|-------------------------|-------------------------|

  Guitar 1
e|-----------------------------------------|
B|-----------------------------------------|
G|-7-7-7-7-9-9-9-9-11-11-11-11-12-12-12-12-|
D|-x-x-x-x-x-x-x-x--x--x--x--x--x--x--x--x-|
A|-5-5-5-5-7-7-7-7--9--9--9--9-10-10-10-10-|
E|-----------------------------------------|
 |Guitar 2
e|-----------------------------------------|
B|-----------------------------------------|
G|-7-7-7-7-9-9-9-9-11-11-11-11-12-12-12-12-|
D|-x-x-x-x-x-x-x-x--x--x--x--x--x--x--x--x-|
A|-5-5-5-5-7-7-7-7--9--9--9--9-10-10-10-10-|
E|-----------------------------------------|

[Bridge]
e|-----------------|---------------|
B|-----------------|---------------|
G|-----------------|---------------| (5x)
D|-2-2-4---5---7-2-|-L-2-4---5---7-|
A|-0-0-0-0-0-0-0-0-|-L-0-0-0-0-0-0-|
E|-----------------|---------------|

e|-----------------|------------------|
B|-----------------|------------------|
G|-----------------|------------------|
D|-2-2-4---5---7-2-|-L-2-4---5---7-10-|
A|-0-0-0-0-0-0-0-0-|-L-0-0-0-0-0-0--0-|
E|-----------------|------------------|

  Guitar 1
e|-------------------|-------------------|-------------------|----------------------|
B|-------------------|-------------------|-------------------|----------------------|
G|-------------------|-------------------|-------------------|----------------------|
D|-L-10-9---7-5---10-|-L-10-9---7-5---10-|-L-10-9---7-5---10-|-L-10-9---7-5---10-12-|
A|-L--0-0-0-0-0-0--0-|-L--0-0-0-0-0-0--0-|-L--0-0-0-0-0-0--0-|-L--0-0-0-0-0-0--0--0-|
E|-------------------|-------------------|-------------------|----------------------|

 | Guitar 3 (pm)
e|-------------------|-------------------|-------------------|----------------------|
B|-1--1-1-1-1-1-1--1-|-1--1-1-1-1-1-1--1-|-1--1-1-1-1-1-1--1-|-1--1-1-1-1-1-1--1--1-|
G|-2--2-2-2-2-2-2--2-|-2--2-2-2-2-2-2--2-|-2--2-2-2-2-2-2--2-|-2--2-2-2-2-2-2--2--2-|
D|-2--2-2-2-2-2-2--2-|-2--2-2-2-2-2-2--2-|-2--2-2-2-2-2-2--2-|-2--2-2-2-2-2-2--2--2-|
A|-0--0-0-0-0-0-0--0-|-0--0-0-0-0-0-0--0-|-0--0-0-0-0-0-0--0-|-0--0-0-0-0-0-0--0--0-|
E|-------------------|-------------------|-------------------|----------------------|

e|---------------------|---------------------|
B|---------------------|---------------------|
G|---------------------|---------------------|
D|-L-12-10---9-10---12-|-L-12-10---9-10---12-|
A|-L--0--0-0-0--0-0--0-|-L--0--0-0-0--0-0--0-|
E|---------------------|---------------------|
 | (pm)                                            (2x)
e|---------------------|---------------------|
B|-1--1--1-1-1--1-1--1-|-1--1--1-1-1--1-1--1-|
G|-2--2--2-2-2--2-2--2-|-2--2--2-2-2--2-2--2-|
D|-2--2--2-2-2--2-2--2-|-2--2--2-2-2--2-2--2-|
A|-0--0--0-0-0--0-0--0-|-0--0--0-0-0--0-0--0-|
E|---------------------|---------------------|

  Guitar 1
e|-------------------|-------------------|-------------------|-----------------|
B|-------------------|-------------------|-------------------|-----------------|
G|-------------------|-------------------|-------------------|-----------------|
D|-13b~~---x-x-x-13b-|-L~~~----x-x-x-13b-|-L~~~----x-x-x-13b-|-L~~~----x-x-x-2-|
A|--0~~~---x-x-x--0--|-L~~~----x-x-x--0--|-L~~~----x-x-x--0--|-L~~~----x-x-x-0-|
E|---------x-x-x-----|---------x-x-x-----|---------x-x-x-----|---------x-x-x---|

 |Guitar 2
e|-------------------|-------------------|-------------------|-----------------|
B|-----8--10---------|------8-10---------|-----8--10---------|-----8--10-------|
G|--7b---------------|-7b----------------|-7b----------------|-7b--------------|
D|-------------------|-------------------|-------------------|-----------------|
A|-------------------|-------------------|-------------------|-----------------|
E|-------------------|-------------------|-------------------|-----------------|

 |Guitar 3
e|-------------------|-------------------|-------------------|-----------------|
B|-1-1-1-1-1-1-1--1--|-1-1-1-1-1-1-1--1--|-1-1-1-1-1-1-1--1--|-1-1-1-1-1-1-1-1-|
G|-2-2-2-2-2-2-2--2--|-2-2-2-2-2-2-2--2--|-2-2-2-2-2-2-2--2--|-2-2-2-2-2-2-2-2-|
D|-2-2-2-2-2-2-2--2--|-2-2-2-2-2-2-2--2--|-2-2-2-2-2-2-2--2--|-2-2-2-2-2-2-2-2-|
A|-0-0-0-0-0-0-0--0--|-0-0-0-0-0-0-0--0--|-0-0-0-0-0-0-0--0--|-0-0-0-0-0-0-0-0-|
E|-------------------|-------------------|-------------------|-----------------|

e|-----------------|-----------------|-----------------|-----------------|
B|-----------------|-----------------|-----------------|-----------------|
G|-----------------|-----------------|-----------------|-----------------|
D|-L-2-4---5---7-2-|-L-2-4---5---7---|-2-2-4---5---7-2-|-L-2-4-----5---7-|
A|-L-0-0-0-0-0-0-0-|-L-0-0-0-0-0-0---|-0-0-0-0-0-0-0-0-|-L-0-0-0-0-0-0-0-|
E|-----------------|-----------------|-----------------|-----------------|
|
e|-----------------|-----------------|-----------------|-----------------|
B|----8--10--------|----8--10--------|----8--10--------|----8--10--------|
G|-7b--------------|-7b--------------|-7b--------------|-7b--------------|
D|-----------------|-----------------|-----------------|-----------------|
A|-----------------|-----------------|-----------------|-----------------|
E|-----------------|-----------------|-----------------|-----------------|
 |
e|-----------------|-----------------|-----------------|-----------------|
B|-1-1-1-1-1-1-1-1-|-1-1-1-1-1-1-1-1-|-1-1-1-1-1-1-1-1-|-1-1-1-1-1-1-1-1-|
G|-2-2-2-2-2-2-2-2-|-2-2-2-2-2-2-2-2-|-2-2-2-2-2-2-2-2-|-2-2-2-2-2-2-2-2-|
D|-2-2-2-2-2-2-2-2-|-2-2-2-2-2-2-2-2-|-2-2-2-2-2-2-2-2-|-2-2-2-2-2-2-2-2-|
A|-0-0-0-0-0-0-0-0-|-0-0-0-0-0-0-0-0-|-0-0-0-0-0-0-0-0-|-0-0-0-0-0-0-0-0-|
E|-----------------|-----------------|-----------------|-----------------|

[Pre-Chorus]
e|-----------7---------|--------------------|
B|--------10---10------|-----10---10---10---|
G|------9---------9----|------9----9----9---|
D|---10-------------10-|-----10---10---10---|
A|-0-------------------|-0-----------0----9-|
E|---------------------|---7----8-----------|

e|----------------------|-------------|
B|----------10----------|----------10-|
G|--------9----9--------|--------9----|
D|-----10---------------|-----10------|
A|-(9)-----------9brb-8-|-(8)---------|
E|----------------------|-------------|

[Chorus] (2x)
  Guitar 1
e|-------------------------|-------------------------|
B|-10-10-10-10-10-10-10-10-|-10-10-10-10-10-10-10-10-|
G|--9--9--9--9--9--9--9--9-|--9--9--9--9--9--9--9--9-|
D|-10-10-10-10-10-10-10-10-|-10-10-10-10-10-10-10-10-|
A|-------------------------|-------------------------|
E|-------------------------|-------------------------|

 |Guitar 2
e|-------------------------|-------------------------|
B|--1--1--1--1--1--1--1--1-|--1--1--1--1--1--1--1--1-|
G|--2--2--2--2--2--2--2--2-|--2--2--2--2--2--2--2--2-|
D|--2--2--2--2--2--2--2--2-|--2--2--2--2--2--2--2--2-|
A|--0--0--0--0--0--0--0--0-|--0--0--0--0--0--0--0--0-|
E|---------------------------------------------------|

e|-------------------------|-------------------------|
B|-10-10-10-10-10-10-10-10-|-10-10-10-10-10-10-10-10-|
G|--9--9--9--9--9--9--9--9-|--9--9--9--9--9--9--9--9-|
D|-10-10-10-10-10-10-10-10-|-10-10-10-10-10-10-10-10-|
A|--0--0--x--x--x--x--x--x-|--x--x--0--0--0--0--9--9-|
E|--------7--7--7--7--8--8-|--8--8-------------------|
 |
e|-------------------------|-------------------------|
B|--1--1--1--1--1--1--1--1-|--1--1--1--1--1--1--3--L-|
G|--2--2--2--2--2--2--2--2-|--2--2--2--2--2--2--2--L-|
D|--2--2--2--2--2--2--2--2-|--2--2--2--2--2--2--0--L-|
A|--0--0--0--0--0--0--0--0-|--0--0--0--0--0--0--0----|
E|-------------------------|--------------------2--L-|

e|-------------------------|-------------------------|
B|-10-10-10-10-10-10-10-10-|-10-10-10-10-10-10-10-10-|
G|--9--9--9--9--9--9--9--9-|--9--9--9--9--9--9--9--9-|
D|-10-10-10-10-10-10-10-10-|-10-10-10-10-10-10-10-10-|
A|--9--9--9--9--9--9--9--9-|--9--9--9--9--9--9--9--9-|
E|-------------------------|-------------------------|
 |
e|--L------------------------------------------------|
B|--L--3--3--3--3--3--3--3-|--3--3--3--3--3--3--3--3-|
G|--L--2--2--2--2--2--2--2-|--2--2--2--2--2--2--2--2-|
D|--L--0--0--0--0--0--0--0-|--0--0--0--0--0--0--0--0-|
A|--L--0--0--0--0--0--0--0-|--0--0--0--0--0--0--0--0-|
E|--L--2--2--2--2--2--2--2-|--2--2--2--2--2--2--2--2-|

e|-------------------------|-------------------------|
B|-10-10-10-10-10-10-10-10-|-10-10-10-10-10-10-10-10-|
G|--9--9--9--9--9--9--9--9-|--9--9--9--9--9--9--9--9-|
D|-10-10-10-10-10-10-10-10-|-10-10-10-10-10-10-10-10-|
A|--8--8--8--8--8--8--8--8-|--8--8--8--8--8--8--8--8-|
E|-------------------------|-------------------------|
 |
e|-------------------------|-------------------------|
B|--1--1--1--1--1--1--1--1-|--1--1--1--1--1--1--1--1-|
G|--0--0--0--0--0--0--0--0-|--0--0--0--0--0--0--0--0-|
D|--3--3--3--3--3--3--3--3-|--3--3--3--3--3--3--3--3-|
A|--3--3--3--3--3--3--3--3-|--3--3--3--3--3--3--3--3-|
E|-------------------------|-------------------------|

[Chorus] (2x)
  Guitar 1
e|-------------------------|-------------------------|
B|-10-10-10-10-10-10-10-10-|-10-10-10-10-10-10-10-10-|
G|--9--9--9--9--9--9--9--9-|--9--9--9--9--9--9--9--9-|
D|-10-10-10-10-10-10-10-10-|-10-10-10-10-10-10-10-10-|
A|-------------------------|-------------------------|
E|-------------------------|-------------------------|

 |Guitar 2
e|-------------------------|-------------------------|
B|--1--1--1--1--1--1--1--1-|--1--1--1--1--1--1--1--1-|
G|--2--2--2--2--2--2--2--2-|--2--2--2--2--2--2--2--2-|
D|--2--2--2--2--2--2--2--2-|--2--2--2--2--2--2--2--2-|
A|--0--0--0--0--0--0--0--0-|--0--0--0--0--0--0--0--0-|
E|---------------------------------------------------|

 |Guitar 3
e|-------------------------|-------------------------|
B|-------------------------|-------------------------|
G|--9--9--9--9--9--9--9--9-|--9--9--9--9--9--9--9--9-|
D|--x--x--x--x--x--x--x--x-|--x--x--x--x--x--x--x--x-|
A|--7--7--7--7--7--7--7--7-|--7--7--7--7--7--7--7--7-|
E|-------------------------|-------------------------|

e|-------------------------|-------------------------|
B|-10-10-10-10-10-10-10-10-|-10-10-10-10-10-10-10-10-|
G|--9--9--9--9--9--9--9--9-|--9--9--9--9--9--9--9--9-|
D|-10-10-10-10-10-10-10-10-|-10-10-10-10-10-10-10-10-|
A|--0--0--x--x--x--x--x--x-|--x--x--0--0--0--0--9--9-|
E|--------7--7--7--7--8--8-|--8--8-------------------|
 |
e|-------------------------|-------------------------|
B|--1--1--1--1--1--1--1--1-|--1--1--1--1--1--1--3--L-|
G|--2--2--2--2--2--2--2--2-|--2--2--2--2--2--2--2--L-|
D|--2--2--2--2--2--2--2--2-|--2--2--2--2--2--2--0--L-|
A|--0--0--0--0--0--0--0--0-|--0--0--0--0--0--0--0----|
E|-------------------------|--------------------2--L-|
|
e|-------------------------|-------------------------|
B|-------------------------|-------------------------|
G|--9--9-11-11-11-11-12-12-|-12-12--9--9--9--9-11-11-|
D|--x--x--x--x--x--x--x--x-|--x--x--x--x--x--x--x--x-|
A|--7--7--9--9--9--9-10-10-|-10-10--7--7--7--7--9--9-|
E|-------------------------|-------------------------|

e|-------------------------|-------------------------|
B|-10-10-10-10-10-10-10-10-|-10-10-10-10-10-10-10-10-|
G|--9--9--9--9--9--9--9--9-|--9--9--9--9--9--9--9--9-|
D|-10-10-10-10-10-10-10-10-|-10-10-10-10-10-10-10-10-|
A|--9--9--9--9--9--9--9--9-|--9--9--9--9--9--9--9--9-|
E|-------------------------|-------------------------|
 |
e|--L------------------------------------------------|
B|--L--3--3--3--3--3--3--3-|--3--3--3--3--3--3--3--3-|
G|--L--2--2--2--2--2--2--2-|--2--2--2--2--2--2--2--2-|
D|--L--0--0--0--0--0--0--0-|--0--0--0--0--0--0--0--0-|
A|--L--0--0--0--0--0--0--0-|--0--0--0--0--0--0--0--0-|
E|--L--2--2--2--2--2--2--2-|--2--2--2--2--2--2--2--2-|
|
e|-------------------------|-------------------------|
B|-------------------------|-------------------------|
G|-11-11-11-11-11-11-11-11-|-11-11-11-11-12-12-12-12-|
D|--x--x--x--x--x--x--x--x-|--x--x--x--x--x--x--x--x-|
A|--9--9--9--9--9--9--9--9-|--9--9--9--9-10-10-10-10-|
E|-------------------------|-------------------------|

e|-------------------------|-------------------------|
B|-10-10-10-10-10-10-10-10-|-10-10-10-10-10-10-10-10-|
G|--9--9--9--9--9--9--9--9-|--9--9--9--9--9--9--9--9-|
D|-10-10-10-10-10-10-10-10-|-10-10-10-10-10-10-10-10-|
A|--8--8--8--8--8--8--8--8-|--8--8--8--8--8--8--8--8-|
E|-------------------------|-------------------------|
 |
e|-------------------------|-------------------------|
B|--1--1--1--1--1--1--1--1-|--1--1--1--1--1--1--1--1-|
G|--0--0--0--0--0--0--0--0-|--0--0--0--0--0--0--0--0-|
D|--3--3--3--3--3--3--3--3-|--3--3--3--3--3--3--3--3-|
A|--3--3--3--3--3--3--3--3-|--3--3--3--3--3--3--3--3-|
E|-------------------------|-------------------------|
 |
e|-------------------------|-------------------------|
B|-------------------------|-------------------------|
G|--9--9--9--9--9--9--9--9-|--9--9--9--9--9--9--9--9-|
D|--x--x--x--x--x--x--x--x-|--x--x--x--x--x--x--x--x-|
A|--7--7--7--7--7--7--7--7-|--7--7--7--7--7--7--7--7-|
E|-------------------------|-------------------------|

  Guitar 1
e|-----------------------------------------|
B|-----------------------------------------|
G|-7-7-7-7-9-9-9-9-11-11-11-11-12-12-12-12-|
D|-x-x-x-x-x-x-x-x--x--x--x--x--x--x--x--x-|
A|-5-5-5-5-7-7-7-7--9--9--9--9-10-10-10-10-|
E|-----------------------------------------|

 |Guitar 2
e|-----------------------------------------|
B|-----------------------------------------|
G|-7-7-7-7-9-9-9-9-11-11-11-11-12-12-12-12-|
D|-x-x-x-x-x-x-x-x--x--x--x--x--x--x--x--x-|
A|-5-5-5-5-7-7-7-7--9--9--9--9-10-10-10-10-|
E|-----------------------------------------|

e|-----------------|-----------------|-----------------|------------------|
B|-----------------|-----------------|-----------------|------------------|
G|-----------------|-----------------|-----------------|------------------|
D|-2-2-4---5---7-2-|-L-2-4---5---7-L-|-2-2-4---5---7-2-|-L-2-4---5---7-10-|
A|-0-0-0-0-0-0-0-0-|-L-0-0-0-0-0-0-L-|-0-0-0-0-0-0-0-0-|-L-0-0-0-0-0-0--0-|
E|-----------------|-----------------|-----------------|------------------|
|                                      
e|-----------------|-----------------|-----------------|------------------|
B|-----------------|-----------------|-----------------|------------------|
G|-----------------|-----------------|-----------------|------------------|
D|-7-7-7-7-7-7-7-7-|-7-7-7-7-7-7-7-7-|-7-7-7-7-7-7-7-7-|-7-7-7-7-7-7-7--7-|
A|-7-7-7-7-7-7-7-7-|-7-7-7-7-7-7-7-7-|-7-7-7-7-7-7-7-7-|-7-7-7-7-7-7-7--7-|
E|-5-5-5-5-5-5-5-5-|-5-5-5-5-5-5-5-5-|-5-5-5-5-5-5-5-5-|-5-5-5-5-5-5-5--5-|


e|-------------------|------------------|-5-5-----5-5-5-5-|
B|-------------------|------------------|-5-5-----5-5-5-5-|
G|-------------------|------------------|-5-5-----5-5-5-5-|
D|-L-10-9---7-5---10-|-L-10-9---7-5-0-0-|-7-7-----7-7-7-7-|
A|-L--0-0-0-0-0-0--0-|-L--0-0-0-0-0-0-0-|-7-7-----7-7-7-7-|
E|-------------------|------------------|-5-5-----5-5-5-5-|
|                                      
e|-------------------|------------------|-----------------|
B|-------------------|------------------|-----------------|
G|-------------------|------------------|-----------------|
D|-7--7-7-7-7-7-7--7-|-7--7-7-7-7-7-7-7-|-7-7-----7-7-7-7-|
A|-7--7-7-7-7-7-7--7-|-7--7-7-7-7-7-7-7-|-7-7-----7-7-7-7-|
E|-5--5-5-5-5-5-5--5-|-5--5-5-5-5-5-5-5-|-5-5-----5-5-5-5-|


************************************

| (n)  Ghost note
| x    Dead note
| b    Bend
| ~    Vibrato  

************************************
 
 
Foo Fighters - Pretender :: indexed at Ultimate Guitar.
Pretender tabs @ 911Tabs

About the artist behind Pretender:

Foo Fighters is an American alternative rock band formed by singer/guitarist Dave Grohl in 1995.[1] Grohl formed the group as a one-man project after the dissolution of his previous band Nirvana in 1994. Prior to the release of Foo Fighters in 1995, Grohl drafted Nate Mendel (bass), William Goldsmith (drums), and Pat Smear (guitar) to complete the group. Goldsmith and Smear left after the recording of the group's second album The Colour and the Shape (1997). They were replaced by Taylor Hawkins and Franz Stahl, respectively, although Stahl left prior to the recording of the group's third album, There Is Nothing Left to Lose (1999).

Chris Shiflett joined as the band's second guitarist after the completion of There is Nothing Left to Lose. The band released its fourth album One by One in 2002. The group followed that release with the two-disc In Your Honor (2005), which was split between acoustic songs and harder-rocking material. Foo Fighters released its sixth album Echoes, Silence, Patience & Grace in 2007. Over the course of the band's career, three of its albums have won Grammy Awards for Best Rock Album, and all six have been nominated for Grammys.

Indexed at Wikipedia.

Show us your talent, perform Pretender!

Here you can post a video or audio performance. Tell me more ...
Where can we find your performance? Tell me more ...
Your comment:
Please, log in to post your performance.