Artists by letter: A B C D E F G H I J K L M N O P Q R S T U V W X Y Z 0-9

 
In The Clear
Intro

e|---------------------------------|---------------------------------|
B|---------------------------------|---------------------------------|
G|-12--11--7-----------------------|-12--11--7-----------------------|
D|---------------------------------|---------------------------------|
A|-10--9---5-----------------------|-10--9---5-----------------------|x2
E|------------7-----5--7--5--3-----|---------------------------------|

Or just strum a G chord



1st Verse
e|---------------------------------|---------------------------------|
B|---------------------------------|---------------------------------|
G|---------------------------------|---------------------------------|
D|-5-------------------------------|---------------------------------|
A|-5-5-5-5-5-5-5-5-5-5-5-5-5-5-5-5-|-5-5-5-5-5-5-5-5-5-5-5-5-5-5-5-5-|
E|-3-3-3-3-3-3-3-3-3-3-3-3-3-3-3-3-|-3-3-3-3-3-3-3-3-3-3-3-3-3-3-3-3-|
     * * * * * * * * * * * * * * *   * * * * * * * * * * * * * * * *

e|---------------------------------|---------------------------------|
B|---------------------------------|---------------------------------|
G|---------------------------------|---------------------------------|
D|---------------------------------|---------------------------------|
A|-5-5-5-5-5-5-5-5-5-5-5-5-5-5-5-5-|-5-5-5-5-5-5-5-5-5-5-5-5-5-5-5-5-|
E|-3-3-3-3-3-3-3-3-3-3-3-3-3-3-3-3-|-3-3-3-3-3-3-3-3-3-3-3-3-3-3-3-3-|
   * * * * * * * * * * * * * * * *   * * * * * * * * * * * * * * * *

e|---------------------------------|---------------------------------|
B|---------------------------------|---------------------------------|
G|---------------------------------|---------------------------------|
D|---------------------------------|---------------------------------|
A|-5-5-5-5-5-5-5-5-5-5-5-5-5-5-5-5-|-5-5-5-5-5-5-5-5-5-5-5-5-5-5-5-5-|x2
E|-0-0-0-0-0-2-2-3-3-3-3-3-3-3-3-3-|-0-0-0-0-0-2-2-3-3-3-3-3-3-3-3-3-|
   * * * * * * * * * * * * * * * * * * * * * * * * * * * * * * * * * 

e|---------------------------------|---------------------------------|
B|---------------------------------|---------------------------------|
G|---------------------------------|---------------------------------|
D|---------------------------------|-5-5-5-5-5-5-5-5-5-5-5-5-5-5-5-5-|
A|-5-5-5-5-5-5-5-5-5-5-5-5-5-5-5-5-|-0-0-0-0-0-2-2-3-3-3-3-3-3-3-3-3-|
E|-0-0-0-0-0-2-2-3-3-3-3-3-3-3-3-3-|---------------------------------|
   * * * * * * * * * * * * * * * *   * * * * * * * * * * * * * * * * 

e|---------------------------------|
B|---------------------------------|
G|---------------------------------|
D|-5-------------------------------|
A|-5---5-5-5-5-5-5-5-5-5-5-5-5-5-5-|
E|-3---3-3-3-3-3-3-3-3-3-3-3-3-3-3-|
       * * * * * * * * * * * * * * 

e|---------------------------------|---------------------------------|
B|---------------------------------|---------------------------------|
G|---------------------------------|---------------------------------|
D|---------------------------------|---------------------------------|
A|-5-5-5-5-5-5-5-5-5-5-5-5-5-5-5-5-|-5-5-5-5-5-5-5-5-5-5-5-5-5-5-5-5-|
E|-3-3-3-3-3-3-3-3-3-3-3-3-3-3-3-3-|-3-3-3-3-3-3-3-3-3-3-3-3-3-3-3-3-|
   * * * * * * * * * * * * * * * *   * * * * * * * * * * * * * * * *


e|---------------------------------|---------------------------------|
B|---------------------------------|---------------------------------|
G|---------------------------------|---------------------------------|
D|---------------------------------|---------------------------------|
A|-5-5-5-5-5-5-5-5-5-5-5-5-5-5-5-5-|-5-5-5-5-5-5-5-5-5-5-5-5-5-5-5-5-|x2
E|-0-0-0-0-0-2-2-3-3-3-3-3-3-3-3-3-|-0-0-0-0-0-2-2-3-3-3-3-3-3-3-3-3-|
   * * * * * * * * * * * * * * * * * * * * * * * * * * * * * * * * * 

e|---------------------------------|---------------------------------|
B|---------------------------------|---------------------------------|
G|---------------------------------|---------------------------------|
D|---------------------------------|-5-5-5-5-5-5-5-5-5-5-5-5-5-5-5-5-|
A|-5-5-5-5-5-5-5-5-5-5-5-5-5-5-5-5-|-0-0-0-0-0-2-2-3-3-3-3-3-3-3-3-3-|
E|-0-0-0-0-0-2-2-3-3-3-3-3-3-3-3-3-|---------------------------------|
   * * * * * * * * * * * * * * * *   * * * * 



1st Chorus

e|-------------0--------3-33-3333-|-----0-------3-33-3333-|
B|-------------3--------3-33-3333-|-----3-------3-33-3333-|
G|-------------0--------0-00-0000-|-----0-------0-00-0000-|
D|-------------2--x-0-x-0-00-0000-|-----2-x-0-x-0-00-0000-|
A|-------------2--x-0-x-2-22-2222-|-----2-x-0-x-2-22-2222-|x2
E|-------------0--x-2-x-3-33-3333-|-----0"x-2-x-3-33-3333-| 

e|--------0-3-33-3333---|
B|--2-2-2-3-3-33-3333---|
G|--2-2-2-0-0-00-0000---|
D|--2-2-2-0-2-22-2222---|
A|--0-0-0-2-3-33-3333---|
E|----------------------|

e|-------------0--------3-33-3333-|-----0-------3-33-3333-|
B|-------------3--------3-33-3333-|-----3-------3-33-3333-|
G|-------------0--------0-00-0000-|-----0-------0-00-0000-|
D|-------------2--x-0-x-0-00-0000-|-----2-x-0-x-0-00-0000-|
A|-------------2--x-0-x-2-22-2222-|-----2-x-0-x-2-22-2222-|x2
E|-------------0--x-2-x-3-33-3333-|-----0"x-2-x-3-33-3333-| 

e|--------0-3-33-3333---|
B|--2-2-2-3-3-33-3333---|
G|--2-2-2-0-0-00-0000---|
D|--2-2-2-0-2-22-2222---|
A|--0-0-0-2-3-33-3333---|
E|----------------------|


e|---------------------------------|
B|---------------------------------|
G|-12--11--7-----------------------|
D|---------------------------------|
A|-10--9---5-----------------------|
E|------------7-----5--7--5--3-----|



2nd Verse

e|---------------------------------|---------------------------------|
B|---------------------------------|---------------------------------|
G|---------------------------------|---------------------------------|
D|-5-------------------------------|---------------------------------|
A|-5-5-5-5-5-5-5-5-5-5-5-5-5-5-5-5-|-5-5-5-5-5-5-5-5-5-5-5-5-5-5-5-5-|
E|-3-3-3-3-3-3-3-3-3-3-3-3-3-3-3-3-|-3-3-3-3-3-3-3-3-3-3-3-3-3-3-3-3-|
     * * * * * * * * * * * * * * *   * * * * * * * * * * * * * * * *

e|-------------------0-----0-------|---------------------------------|
B|-------------------0-----0-------|---------------------------------|
G|---------------------------------|---------------------------------|
D|---------------------------------|---------------------------------|
A|-5-5-5-5-5-5-5-5-5---5-5---5-5-5-|-5-5-5-5-5-5-5-5-5-5-5-5-5-5-5-5-|
E|-3-3-3-3-3-3-3-3-3---3-3---3-3-3-|-3-3-3-3-3-3-3-3-3-3-3-3-3-3-3-3-|
   * * * * * * * * *   * *   * * *   * * * * * * * * * * * * * * * *

e|-------------------0-----0-------|
B|-------------------0-----0-------|
G|---------------------------------|
D|---------------------------------|
A|-5-5-5-5-5-5-5-5-5---5-5---5-5-5-|
E|-3-3-3-3-3-3-3-3-3---3-3---3-3-3-|
   * * * * * * * * *   * *   * * * 

e|-------------------0-----0-------|-------------------0-----0-------|
B|-------------------0-----0-------|-------------------0-----0-------|
G|---------------------------------|---------------------------------|
D|---------------------------------|---------------------------------|
A|-5-5-5-5-5-5-5-5-5---5-5---5-5-5-|-5-5-5-5-5-5-5-5-5---5-5---5-5-5-|x2
E|-0-0-0-0-0-2-2-3-3---3-3---3-3-3-|-0-0-0-0-0-2-2-3-3---3-3---3-3-3-|
    

e|-------------------0-----0-------|---------------------------------|
B|-------------------0-----0-------|---------------------------------|
G|---------------------------------|---------------------------------|
D|---------------------------------|-5-5-5-5-5-5-5-5-5-5-5-5-5-5-5-5-|
A|-5-5-5-5-5-5-5-5-5---5-5---5-5-5-|-0-0-0-0-0-2-2-3-3-3-3-3-3-3-3-3-|
E|-0-0-0-0-0-2-2-3-3---3-3---3-3-3-|---------------------------------|
   


2nd Chorus

e|-------------0--------3-33-3333-|-----0-------3-33-3333-|
B|-------------3--------3-33-3333-|-----3-------3-33-3333-|
G|-------------0--------0-00-0000-|-----0-------0-00-0000-|
D|-------------2--x-0-x-0-00-0000-|-----2-x-0-x-0-00-0000-|
A|-------------2--x-0-x-2-22-2222-|-----2-x-0-x-2-22-2222-|x2
E|-------------0--x-2-x-3-33-3333-|-----0"x-2-x-3-33-3333-| 

e|--------0-3-33-3333---|
B|--2-2-2-3-3-33-3333---|
G|--2-2-2-0-0-00-0000---|
D|--2-2-2-0-2-22-2222---|
A|--0-0-0-2-3-33-3333---|
E|----------------------|

e|-------------0--------3-33-3333-|-----0-------3-33-3333-|
B|-------------3--------3-33-3333-|-----3-------3-33-3333-|
G|-------------0--------0-00-0000-|-----0-------0-00-0000-|
D|-------------2--x-0-x-0-00-0000-|-----2-x-0-x-0-00-0000-|
A|-------------2--x-0-x-2-22-2222-|-----2-x-0-x-2-22-2222-|x2
E|-------------0--x-2-x-3-33-3333-|-----0"x-2-x-3-33-3333-| 

e|----------------0-3-33-3333----|
B|--2-2-2---------3-3-33-3333----|
G|--2-2-2---------0-0-00-0000----|
D|--2-2-2---------0-2-22-2222----|
A|--0-0-0--1-2-3--2-3-33-3333----|
E|-------------------------------|



Bridge

e|---------------------------------|---------------------------------|
B|---------------------------------|---------------------------------|
G|-12--11--7-----------------------|-12--11--7-----------------------|
D|---------------------------------|---------------------------------|
A|-10--9---5-----------------------|-10--9---5-----------------------|x2
E|------------7-----5--7--5--3-----|---------------------------------|

e|---------------------------------|---------------------------------|
B|---------------------------------|---------------------------------|
G|-12--11--7-----------------------|-6--9--14------------------------|
D|---------------------------------|---------------------------------|
A|-10--9---5-----------------------|-4--7--12------------------------|
E|------------7-----5--7--5--3-----|---------------------------------|



Solo
e|---------------------------------|---------------------------------|
B|--8-------7------10------12------|--8-------7------3---------------|
G|--10b12---9b11---12b14---14b16---|--10b12---9b11---5b7-------------|
D|---------------------------------|---------------------------------|
A|---------------------------------|---------------------------------|x2
E|---------------------------------|---------------------------------|

e|---------------------------------|--9-------12------17-------------|
B|--8-------7-------10------12-----|--12b14---15b17---20b22----------|
G|--10b12---9b12----12b14---14b16--|---------------------------------|
D|---------------------------------|---------------------------------|
A|---------------------------------|---------------------------------|
E|---------------------------------|---------------------------------|

Or just continue playing the bridge…


Final Chorus

e|-------------0--------3-33-3333-|-----0-------3-33-3333-|
B|-------------3--------3-33-3333-|-----3-------3-33-3333-|
G|-------------0--------0-00-0000-|-----0-------0-00-0000-|
D|-------------2--x-0-x-0-00-0000-|-----2-x-0-x-0-00-0000-|
A|-------------2--x-0-x-2-22-2222-|-----2-x-0-x-2-22-2222-|x2
E|-------------0--x-2-x-3-33-3333-|-----0"x-2-x-3-33-3333-| 

e|--------0-3-33-3333---|
B|--2-2-2-3-3-33-3333---|
G|--2-2-2-0-0-00-0000---|
D|--2-2-2-0-2-22-2222---|
A|--0-0-0-2-3-33-3333---|
E|----------------------|

e|---------------0--------3-33-3333-|------------0-------3-33-3333-|
B|---------------3--------3-33-3333-|------------3-------3-33-3333-|
G|---------------0--------0-00-0000-|------------0-------0-00-0000-|
D|---------------2--x-0-x-0-00-0000-|------------2-x-0-x-0-00-0000-|
A|--2-5-5-5------2--x-0-x-2-22-2222-|-7-5-7------2-x-0-x-2-22-2222-|
E|---------------0--x-2-x-3-33-3333-|------------0"x-2-x-3-33-3333-| 

e|--------0-3-33-3333---|
B|--2-2-2-3-3-33-3333---|
G|--2-2-2-0-0-00-0000---|
D|--2-2-2-0-2-22-2222---|
A|--0-0-0-2-3-33-3333---|
E|----------------------|



Outro

e|---------------------------------|---------------------------------|
B|--8-------7------10------12------|--8-------7------3---------------|
G|--10b12---9b11---12b14---14b16---|--10b12---9b11---5b7-------------|
D|---------------------------------|---------------------------------|
A|---------------------------------|---------------------------------|x2
E|---------------------------------|---------------------------------|

Or

e|---------------------------------|---------------------------------|
B|---------------------------------|---------------------------------|
G|-12--11--7-----------------------|-12--11--7-----------------------|
D|---------------------------------|---------------------------------|
A|-10--9---5-----------------------|-10--9---5-----------------------|x2
E|------------7-----5--7--5--3-----|---------------------------------|

 
 
Foo Fighters - In The Clear :: indexed at Ultimate Guitar.
In The Clear tabs @ 911Tabs

About the artist behind In The Clear:

Foo Fighters is an American alternative rock band formed by singer/guitarist Dave Grohl in 1995.[1] Grohl formed the group as a one-man project after the dissolution of his previous band Nirvana in 1994. Prior to the release of Foo Fighters in 1995, Grohl drafted Nate Mendel (bass), William Goldsmith (drums), and Pat Smear (guitar) to complete the group. Goldsmith and Smear left after the recording of the group's second album The Colour and the Shape (1997). They were replaced by Taylor Hawkins and Franz Stahl, respectively, although Stahl left prior to the recording of the group's third album, There Is Nothing Left to Lose (1999).

Chris Shiflett joined as the band's second guitarist after the completion of There is Nothing Left to Lose. The band released its fourth album One by One in 2002. The group followed that release with the two-disc In Your Honor (2005), which was split between acoustic songs and harder-rocking material. Foo Fighters released its sixth album Echoes, Silence, Patience & Grace in 2007. Over the course of the band's career, three of its albums have won Grammy Awards for Best Rock Album, and all six have been nominated for Grammys.

Indexed at Wikipedia.

Show us your talent, perform In The Clear!

Here you can post a video or audio performance. Tell me more ...
Where can we find your performance? Tell me more ...
Your comment:
Please, log in to post your performance.