Artists by letter: A B C D E F G H I J K L M N O P Q R S T U V W X Y Z 0-9

 
Hey Johnny Park
Now I know that there are other tabs of this song. But I know for sure that this is the 
right one.
This is my favorite Foo Fighters song, so I made sure to carefully study the guitar parts.
I'm only going to include the Intro and the Solo because the intro is wrong on every
other tab and there is
no solo on any other tab. This is in Drop D. If you don't know what that is then this
isn't a good song to learn or get used to it on.

Intro:
E--------------------------------------------------------------------2-2------|
B------7p-----------7----------------------7--7-7--------------------3-3------|
G----------7-6~-----7-7-6~------------7----7--7-7--------------------2-2------|
D--/9------------7-----------------6-------6--6-6--------------------0-0------|
A------------------------------/7----------7--7-7----2--4-5-5-----------------|
D----------------------------------------------------2--4-5-5-12/5-------5/12-|

E----------------------|
B--------------7-7-7---|
G---------7----7-7-7---|
D------6-------6-6-6---|
A--/7----------7-7-7---|
D----------------------|

E---------------------------------------------------------------------2-2--|
B------7p-----------7----------------------7--7-7---------------------3-3--|
G----------7-6~-----7-7-6~------------7----7--7-7---------------------2-2--|
D--/9------------7-----------------6-------6--6-6---------------------0-0--|
A------------------------------/7----------7--7-7----2--4-5-5--------------|
D----------------------------------------------------2--4-5-5-12/5---------|

I'm only making the guitar 1 tab because most of you won't be in a full band with two 
guitar players.

If you disagree with me about that last chord: 7 and think it is: 4
                                               7                  3
                                               6                  4
                                               7                  2
                                                                  2
                                                                  2
Then I'd have to say you're wrong.
Check out these two youtube videos: http://www.youtube.com/watch?v=LfQjaIjZHJs
and http://www.youtube.com/watch?v=dK7l41snQSc

If you play my chord with the first video,
then you'll notice it is correct as opposed to the chords presented in all the other tabs.
In the second video you'll get video proof that Dave Grohl himself plays it like that.
Some parts of that video may appear to be different than my tab,
but that's because there are two guitarists.

I'm not putting in the verse and the chorus in, because every other tab is correct about it,
so there is no need to put one in mine.
Here, look at the verse and chorus in this one:
 http://tabs.ultimate-guitar.com/f/foo_fighters/hey_johnny_park_ver2_tab.htm

Here is the solo because nearly every tab neglected to put it in.
The beginning of the solo might be weird.
(I'm not exactly sure if it is correct, but its damn near close).
But the rest is great.
I'm 97% sure its correct.
You won't fine a more accurate version in any other tab.

Solo:(When you bend the 10, make sure it bends to an 12 sound)

E----------------------------------------------------------------------------|
B---------12-12-12-12--10-10-10-10--12-12-12-12--10-10-10~-------------------|
G---------12-12-12-12--11-11-11-11--12-12-12-12--11-11-----------------------|
D---------12-12-12-12---------------12-12-12-12------------------------------|
A--2-4-------------------------------------------------------5-5-x-x-x-4-4---|
D--2-4-------------------------------------------------------5-5-x-x-x-4-4---|
                                                                  ^^^
                                        (This needs to happen really fast!)

And there it is. The correct intro, and an actual tab that includes the solo. This is my
first tab, and I probably made one or two mistakes.

Lemme know what you think.
 
 
Foo Fighters - Hey Johnny Park :: indexed at Ultimate Guitar.
Hey Johnny Park tabs @ 911Tabs

About the artist behind Hey Johnny Park:

Foo Fighters is an American alternative rock band formed by singer/guitarist Dave Grohl in 1995.[1] Grohl formed the group as a one-man project after the dissolution of his previous band Nirvana in 1994. Prior to the release of Foo Fighters in 1995, Grohl drafted Nate Mendel (bass), William Goldsmith (drums), and Pat Smear (guitar) to complete the group. Goldsmith and Smear left after the recording of the group's second album The Colour and the Shape (1997). They were replaced by Taylor Hawkins and Franz Stahl, respectively, although Stahl left prior to the recording of the group's third album, There Is Nothing Left to Lose (1999).

Chris Shiflett joined as the band's second guitarist after the completion of There is Nothing Left to Lose. The band released its fourth album One by One in 2002. The group followed that release with the two-disc In Your Honor (2005), which was split between acoustic songs and harder-rocking material. Foo Fighters released its sixth album Echoes, Silence, Patience & Grace in 2007. Over the course of the band's career, three of its albums have won Grammy Awards for Best Rock Album, and all six have been nominated for Grammys.

Indexed at Wikipedia.

Show us your talent, perform Hey Johnny Park!

Here you can post a video or audio performance. Tell me more ...
Where can we find your performance? Tell me more ...
Your comment:
Please, log in to post your performance.