Artists by letter: A B C D E F G H I J K L M N O P Q R S T U V W X Y Z 0-9

 
Breakout
-------------------------------------------------------------------------------
                             Breakout " Foo Fighters
-------------------------------------------------------------------------------

By: Bryan Thorsell

Intro: (Come in When Drums do)
e|-0--0--0--0--0--0--0--0--0--0--0--0--0--0--0--0|
B|-0--0--0--0--0--0--0--0--0--0--0--0--0--0--0--0|
G|-4--4--4--4--4--4--4--4--4--4--4--4--4--4--4--4|  Repeat once
D|-4--4--4--4--4--4--4--4--3--3--3--3--2--2--2--2|
A|-2--2--2--2--2--2--2--2--2--2--2--2--2--2--2--2|
E|-----------------------------------------------|

Refrain:
e|--0--0--0--0--0--0--0"0|      --3--3--3--3--0--0--0--0|
B|--0--0--0--0--0--0--0"0|      --0--0--0--0--0--0--0--0|
G|--4--4--4--4--0--0--0"0|Repeat--0--0--0--0--0--0--0--0|All over again
D|--4--4--4--4--2--2--2"2|      --0--0--0--0--2--2--2--2|
A|--2--2--2--2--2--2--2"2|      --2--2--2--2--2--2--2--2|On the 2nd time repeat
E|-----------------------|      --3--3--3"3-------------|part 2

Verse:
e|-0--0--0--0--0--0--0--0--0--0--0--0--0--0--0--0|
B|-0--0--0--0--0--0--0--0--0--0--0--0--0--0--0--0|
G|-4--4--4--4--4--4--4--4--4--4--4--4--4--4--4--4|  Play 5 times
D|-4--4--4--4--4--4--4--4--3--3--3--3--2--2--2--2|
A|-2--2--2--2--2--2--2--2--2--2--2--2--2--2--2--2|
E|-----------------------------------------------|

Refrain

When he starts screaming on the refrain its:
e|--0--0--0--0--0--0--0--0|
B|--0--0--2--2--0--0--0--0|
G|--4--4--2--2--4--4--0--0|
D|--4--4--2--2--4--4--2--2|
A|--2--2--0--0--2--2--2--2|
E|--------0--0------------|

Verse til the end
Play part above this to end the song
 
 
Foo Fighters - Breakout :: indexed at Ultimate Guitar.
Breakout tabs @ 911Tabs

About the artist behind Breakout:

Foo Fighters is an American alternative rock band formed by singer/guitarist Dave Grohl in 1995.[1] Grohl formed the group as a one-man project after the dissolution of his previous band Nirvana in 1994. Prior to the release of Foo Fighters in 1995, Grohl drafted Nate Mendel (bass), William Goldsmith (drums), and Pat Smear (guitar) to complete the group. Goldsmith and Smear left after the recording of the group's second album The Colour and the Shape (1997). They were replaced by Taylor Hawkins and Franz Stahl, respectively, although Stahl left prior to the recording of the group's third album, There Is Nothing Left to Lose (1999).

Chris Shiflett joined as the band's second guitarist after the completion of There is Nothing Left to Lose. The band released its fourth album One by One in 2002. The group followed that release with the two-disc In Your Honor (2005), which was split between acoustic songs and harder-rocking material. Foo Fighters released its sixth album Echoes, Silence, Patience & Grace in 2007. Over the course of the band's career, three of its albums have won Grammy Awards for Best Rock Album, and all six have been nominated for Grammys.

Indexed at Wikipedia.

Show us your talent, perform Breakout!

Here you can post a video or audio performance. Tell me more ...
Where can we find your performance? Tell me more ...
Your comment:
Please, log in to post your performance.