Artists by letter: A B C D E F G H I J K L M N O P Q R S T U V W X Y Z 0-9

 
Naive Tab
The Kooks

Naive - from Inside In/Inside Out
 
Tabbed by: Mark Bryce	14th February 2007

Email: [email protected]
Web: www.myspace.com/markbryce


I'm tired of seeing incomplete half-arsed guitar tabs, so here is the song as note perfect as i can manage

Enjoy!


_____________________________________________________


Tuning: EADGBe

Legend
	h    - hammer on
	p    - pull off
	/    - slide up
	    - slide Down
		

Guitar 1: Rhythm Guitar 
Guitar 2: Addition Lead/rhythm Guitar parts



_____________________________________________________


Intro 

A lot of string muting is required in this song for the right effect.
I've tried to put it in as much as I can, but really its up to you to figure out the rhythm for yourself


Guitar 1 

    G#sus4           E                F#/Bb          B      Bmaj7th-sus4

e|-----x--x-x-x-x-----------x-x-x-x-------x-x-x-x--------7--7-7-x-x-x--|
B|-----x--x-x-x-x--------9--x-x-x-x-------x-x-x-x--------7--7-7-x-x-x--|
G|-----6--6-6-6-6---x-x-9--6-6-6-6------6-6-6-6p4--4-4-8--9-9-x-x-x--|
D|--x--6--6-6-6-6---9-9-9--6-6-6-6------4-4-4-4----4-4-9--8-8-x-x-x--|
A|--6----------------7-7-7-------------------------------9--9-9-x-x-x--|
E|--4---------------------------------4/6----------------7--7-7--------|

	         ^^                ^^
          slide down the fret board for effect
		

_____________________________________________________


Verse 1


I'm not saying it was your fault, although you could have done more 
Oh you're so naive yet so 

Guitar 1 

       G#sus4       E              F#/Bb           B    Bmaj7th-sus4

e|-------------------------------------------------7-7--7-7-x-x-x--|
B|-----x--x-x-x-x-----9-x-9-9-9-9----7-x-7-7-7-7---7-7--7-7-x-x-x--|
G|-----6--6-6-6-6--9-9-x-9-9-9-9----6-x-6-6-6-6---8-8--9-9-x-x-x--|
D|--x--6--6-6-6-6--9-9-x-9-9-9-9--x-4-x-4-4-4-4---9-9--8-8-x-x-x--|
A|--6---------------7-7-x-7-7-7-7--x-x-x-x-x-x-x---9-9--9-9-x-x-x--|
E|--4------------------------------6-6---6-6-6-6---7-7--7-7--------|

Guitar 2 

e|-----------------------------------------------------------------|
B|-----------------------------------------------------------------|
G|--4-------------------------4/6----------------------------------|
D|-----------------------------------------------------------------|
A|-----------------------------------------------------------------|
E|-----------------------------------------------------------------|



How could this be done, you're such a smiling sweetheart 
Oh and your sweet and pretty face 

Guitar 1 

    G#m            E             F#/Bb         B    Bmaj7th-sus4

e|-----4-x-4-4-4-------------------------------7-7--7-7-7-x-x--|
B|-----4-x-4-4-4---9-9-x-9-9-9---7-7-x-7-7-7---7-7--7-7-7-x-x--|
G|-----4-x-4-4-4---9-9-x-9-9-9---6-6-x-6-6-6---8-8--9-9-9-x-x--|
D|--x--6-x-6-6-6---9-9-x-9-9-9---4-4-x-4-4-4---9-9--8-8-8-x-x--|
A|--6--6-x---------7-7-x-7-7-7---x-x-x-x-x-x---9-9--9-9-9-x-x--|
E|--4--4-x-----------------------6-6---6-6-6---7-7--7-7-7------|

Guitar 2 

e|-------------------------------------------------------------|
B|-------------------------------------------------------------|
G|--4----------------------------------6------------6-6--------|
D|-------------------------------8-----------------------------|
A|-------------------------------------------------------------|
E|-------------------------------------------------------------|



In such an ugly world, Something so beautiful
That everytime I look inside 

Guitar 1 

       G#m         E             F#/Bb         B    Bmaj7th-sus4

e|-----4-x-4-4-4-------------------------------7-7--7-7---|
B|-----4-x-4-4-4---9-9-x-9-9-9---7-7-x-7-7-7---7-7--7-7---|
G|-----4-x-4-4-4---9-9-x-9-9-9---6-6-x-6-6-6---8-8--9-9---|
D|--x--6-x-6-6-6---9-9-x-9-9-9---4-4-x-4-4-4---9-9--8-8---|
A|--6--6-x---------7-7-x-7-7-7---x-x-x-x-x-x---9-9--9-9---|
E|--4--4-x-----------------------6-6---6-6-6---7-7--7-7---|

Guitar 2 

e|---------------------------------------------7-7--7-7---|
B|---------------------------------------------8-8--7-7---|
G|--4/6------------4-------------------6--6----8-8--9-9---|
D|-------------------------------8-------------9-9--8-9---|
A|---------------------------------------------9-9--9-9---|
E|---------------------------------------------7-7--7-7---|



_____________________________________________________


Chrous 1


I know she knows that I'm not fond of asking 
True or false, it may be... well she's still out to get me

Guitar 1 

    E	    B       D#m     E	    B       D#m

e|----------7-------6---------------7-------6--------|
B|--9-------7-------7-------9-------7-------7--------|
G|--9-------8-------8-------9-------8-------8--------|
D|--9-------9-------8-------9-------9-------8--------|
A|--7-------9-------6-------7-------9-------6--------|
E|----------7-------6---------------7-------6--------|

Guitar 2 

    E	    B       D#m     E	    B       D#m

e|----------7-------6---------------7-------6--------|
B|--9-------7-------7-------9-------7-------7--------|
G|--9-------8-------8-------9-------8-------8--------|
D|--9-------9-------8-------9-------9-------8--------|
A|--7-------9-------6-------7-------9-------6--------|
E|----------7-------6---------------7-------6--------|



And I know she knows that I'm not fond of asking 
True or false, it may be... she's still out to get me

Guitar 1 

    E	     G#m   D#m     E	      B    D#m

e|-----------4-4-x-6-6-6--------------7-7--6-6----|
B|--9-9-9-9--4-4-x-7-7-7----9--9-9-9--7-7--7-7----|
G|--9-9-9-9--4-4-x-8-8-8----9--9-9-9--8-8--8-8----|
D|--9-9-9-9--6-6-x-8-8-8----9--9-9-9--9-9--8-8----|
A|--7-7-7-7--6---x-6-6-6----7--7-7-7--9-9--6-6----|
E|-----------4-----6-6-6--------------7-7--6-6----|

Guitar 2 

    E	     G#m   D#m      E	      B    D#m

e|-----------4-4-x-6-6-6--------------7-7--6-6----|
B|--9--------4-4-x-7-7-7----9---------7-7--7-7----|
G|--9--------4-4-x-8-8-8----9---------8-8--8-8----|
D|--9--------6-6-x-8-8-8----9---------9-9--8-8----|
A|--7--------6---x-6-6-6----7---------9-9--6-6----|
E|-----------4-----6-6-6--------------7-7--6-6----|



End chorus on:

Guitar 1

    Esus2	    

e|--7-------7-----------7---------------x-x-|
B|--7-------7-----------7---------------x-x-|
G|--9-------9-----------9---------------x-x-|
D|--9-------9-----------9---------------x-x-|
A|--7-------7-----------7---------------x-x-|
E|--------------------------------------x-x-|

Guitar 2
   
e|------------------------------------------|
B|--12-12-12-12-12-12-12-12-12-12-12-12-----|
G|--11-11-11-11-11-11-11-11-11-11-11-11-----|
D|------------------------------------------|
A|------------------------------------------|
E|------------------------------------------|



_____________________________________________________


Verse 2


I may say it was your fault, because I know you could have done more 
Oh you're so naive yet so 

Guitar 1 

     G#m               E                 F#/Bb             B     Bmaj7th-sus4

e|---4-4-4-4-4--4-4-4--------------------------------------7-7-7--7-7-7-|
B|---4-4-4-4-4--4-4-4--9-9-9-9-9--9-9-9--7-7-7-7-7--7-7-7--7-7-7--7-7-7-|
G|---4-4-4-4-4--4-4-4--9-9-9-9-9--9-9-9--6-6-6-6-6--6-6-6--8-8-8--9-9-9-|
D|---6-6-6-6-6--6-6-6--9-9-9-9-9--9-9-9--4-4-4-4-4--4-4-4--9-9-9--8-8-8-|
A|---6-6-6-6-6--6-6-6--7-7-7-7-7--7-7-7--x-x-x-x-x--x-x-x--9-9-9--9-9-9-|
E|---4-4-4-4-4--4-4-4--------------------6-6-6-6-6--6-6-6--7-7-7--7-7-7-|

Guitar 2 

     G#m               E                 F#                B     Bmaj7th-sus4
  
e|---x-x-x-x-x--x-x-x--x-x-x-x-x--x-x-x---------------------------------|
B|---4-4-4-4-4--4-4-4--9-9-9-9-9--9-9-9--x-x-x-x-x--x-x-x--x-x-x--x-x-x-|
G|---4-4-4-4-4--4-4-4--9-9-9-9-9--9-9-9--6-6-6-6-6--6-6-6--4-4-4--9-9-9-|
D|---6-6-6-6-6--6-6-6--9-9-9-9-9--9-9-9--4-4-4-4-4--4-4-4--4-4-4--8-8-8-|
A|----------------------------------------------------------------------|
E|----------------------------------------------------------------------|



How could this be done, by such a smiling sweetheart,
Oh and your sweet and pretty face 

Guitar 1 

     G#m               E                 F#/Bb             B     Bmaj7th-sus4

e|---4-4-4-4-4--4-4-4--------------------------------------7-7-7--7-7-7-7-|
B|---4-4-4-4-4--4-4-4--9-9-9-9-9--9-9-9--7-7-7-7-7--7-7-7--7-7-7--7-7-7-7-|
G|---4-4-4-4-4--4-4-4--9-9-9-9-9--9-9-9--6-6-6-6-6--6-6-6--8-8-8--9-9-9-9-|
D|---6-6-6-6-6--6-6-6--9-9-9-9-9--9-9-9--4-4-4-4-4--4-4-4--9-9-9--8-8-8-8-|
A|---6-6-6-6-6--6-6-6--7-7-7-7-7--7-7-7--x-x-x-x-x--x-x-x--9-9-9--9-9-9-9-|
E|---4-4-4-4-4--4-4-4--------------------6-6-6-6-6--6-6-6--7-7-7--7-7-7-7-|

Guitar 2 

     G#m               E                 F#                      Bmaj7th-sus4
  
e|---x-x-x-x-x--x-x-x--x-x-x-x-x--x-x-x--x--x--x--x--x---x--x--x----------|
B|---4-4-4-4-4--4-4-4--9-9-9-9-9--9-9-9--14-14-14-14-14--14-14-14-x-x-x-x-|
G|---4-4-4-4-4--4-4-4--9-9-9-9-9--9-9-9--11-11-11-11-11--11-11-11-9-9-9-9-|
D|---6-6-6-6-6--6-6-6--9-9-9-9-9--9-9-9--11-11-11-11-11--11-11-11-8-8-8-8-|
A|------------------------------------------------------------------------|
E|------------------------------------------------------------------------|



In such an ugly world, something so beautiful,
That everytime I look inside 

Guitar 1 

     G#m               E                 F#/Bb             B    Bmaj7th-sus4

e|---4-4-4-4-4--4-4-4--------------------------------------7-7--7-7--|
B|---4-4-4-4-4--4-4-4--9-9-9-9-9--9-9-9--7-7-7-7-7--7-7-7--7-7--7-7--|
G|---4-4-4-4-4--4-4-4--9-9-9-9-9--9-9-9--6-6-6-6-6--6-6-6--8-8--9-9--|
D|---6-6-6-6-6--6-6-6--9-9-9-9-9--9-9-9--4-4-4-4-4--4-4-4--9-9--8-8--|
A|---6-6-6-6-6--6-6-6--7-7-7-7-7--7-7-7--x-x-x-x-x--x-x-x--9-9--9-9--|
E|---4-4-4-4-4--4-4-4--------------------6-6-6-6-6--6-6-6--7-7--7-7--|

Guitar 2 

     G#m               E                 F#                      Bmaj7th-sus4
  
e|---x-x-x-x-x--x-x-x--x-x-x-x-x--x-x-x--x--x--x--x--x---x--x--x--------|
B|---4-4-4-4-4--4-4-4--9-9-9-9-9--9-9-9--14-14-14-14-14--14-14-14--x-x--|
G|---4-4-4-4-4--4-4-4--9-9-9-9-9--9-9-9--11-11-11-11-11--11-11-11--9-9--|
D|---6-6-6-6-6--6-6-6--9-9-9-9-9--9-9-9--11-11-11-11-11--11-11-11--8-8--|
A|----------------------------------------------------------------------|
E|----------------------------------------------------------------------|


_____________________________________________________


Chrous 2


I know she knows that I'm not fond of asking 
True or false, it may be... well she's still out to get me

Guitar 1 

    E	     B    D#m      E	    B    D#m

e|-----------7-7--6-6-6-6-----------7-7--6-6-6-6---|
B|--9-9-9-9--7-7--7-7-7-7--9-9-9-9--7-7--7-7-7-7---|
G|--9-9-9-9--8-8--8-8-8-8--9-9-9-9--8-8--8-8-8-8---|
D|--9-9-9-9--9-9--8-8-8-8--9-9-9-9--9-9--8-8-8-8---|
A|--7-7-7-7--9-9--6-6-6-6--7-7-7-7--9-9--6-6-6-6---|
E|-----------7-7--6-6-6-6-----------7-7--6-6-6-6---|

Guitar 2 

    E	     B    D#m      E	    B    D#m

e|-----------7-7--6-6-6-6-----------7-7--6-6-6-6---|
B|--9-9-9-9--7-7--7-7-7-7--9-9-9-9--7-7--7-7-7-7---|
G|--9-9-9-9--8-8--8-8-8-8--9-9-9-9--8-8--8-8-8-8---|
D|--9-9-9-9--9-9--8-8-8-8--9-9-9-9--9-9--8-8-8-8---|
A|--7-7-7-7--9-9--6-6-6-6--7-7-7-7--9-9--6-6-6-6---|
E|-----------7-7--6-6-6-6-----------7-7--6-6-6-6---|



I know she knows that I'm not fond of asking 
True or false, it may be... she's still out to get me

Guitar 1 

    E	     G#m  D#m      E	    B    D#m

e|-----------4-4--6-6-6-6-----------7-7--6-6---|
B|--9-9-9-9--4-4--7-7-7-7--9-9-9-9--7-7--7-7---|
G|--9-9-9-9--4-4--6-6-6-6--9-9-9-9--8-8--8-8---|
D|--9-9-9-9--6-6--8-8-8-8--9-9-9-9--9-9--8-8---|
A|--7-7-7-7--6----6-6-6-6--7-7-7-7--9-9--6-6---|
E|-----------4----6-6-6-6-----------7-7--6-6---|

Guitar 2 

    E	     G#m  D#m      E	    B    D#m

e|-----------4-4--6-6-6-6-----------7-7--6-6---|
B|--9-9-9-9--4-4--7-7-7-7--9-9-9-9--7-7--7-7---|
G|--9-9-9-9--4-4--8-8-8-8--9-9-9-9--8-8--8-8---|
D|--9-9-9-9--6-6--8-8-8-8--9-9-9-9--9-9--8-8---|
A|--7-7-7-7--6----6-6-6-6--7-7-7-7--9-9--6-6---|
E|-----------4----6-6-6-6-----------7-7--6-6---|


_____________________________________________________


Bridge 

Guitar 1 
     
e|--------------------------------------------0--0--0--0--0--0----|
B|--------------------------------------------0--0--0--0--0--0----|
G|---4-4-/-6-6-6-6-/-8-8-8-8-/-9--9--9--9--/--11-11-11-11-11-16---|
D|---6-6-/-8-8-8-8-/-9-9-9-9-/-11-11-11-11-/-----------------16---|
A|----------------------------------------------------------------|
E|----------------------------------------------------------------|
Guitar 2 
     
e|-----------------------------------------------------------0----|
B|-----------------------------------------------------------0----|
G|-----------------------------------------------------------16---|
D|-----------------------------------------------------------16---|
A|----------------------------------------------------------------|
E|----------------------------------------------------------------|



Guitar 1 
     
e|-------------------------------------------0--0--0--0--0--0--0-0--|
B|-------------------------------------------0--0--0--0--0--0--0-0--|
G|---4-4-/-6-6-6-6-/-8-8-8-8-/-9--9--9--9--/-11-11-11-11-11-11-9-9--|
D|---6-6-/-8-8-8-8-/-9-9-9-9-/-11-11-11-11-/------------------------|
A|------------------------------------------------------------------|
E|------------------------------------------------------------------|

Guitar 2 
     
e|---------------------------------12----12-------------------------|
B|-19-19-19-17-14---17-16-12-12h14----14-----14-14-14-14-14-14-x-x--|
G|-------------------------------------------11-11-11-11-11-11-9-9--|
D|-------------------------------------------11-11-11-11-11-11-9-9--|
A|------------------------------------------------------------------|
E|------------------------------------------------------------------|



_____________________________________________________


Verse 3


So how could this be done by such a smiling sweetheart 
Oh you're so naive yet so 

Guitar 1 

     G#m               E                 F#/Bb             B     Bmaj7th-sus4

e|---4-4-4-4-4--4-4-4--------------------------------------7-7-7--7-7-7-7-|
B|---4-4-4-4-4--4-4-4--9-9-9-9-9--9-9-9--7-7-7-7-7--7-7-7--7-7-7--7-7-7-7-|
G|---4-4-4-4-4--4-4-4--9-9-9-9-9--9-9-9--6-6-6-6-6--6-6-6--8-8-8--9-9-9-9-|
D|---6-6-6-6-6--6-6-6--9-9-9-9-9--9-9-9--4-4-4-4-4--4-4-4--9-9-9--8-8-8-8-|
A|---6-6-6-6-6--6-6-6--7-7-7-7-7--7-7-7--x-x-x-x-x--x-x-x--9-9-9--9-9-9-9-|
E|---4-4-4-4-4--4-4-4--------------------6-6-6-6-6--6-6-6--7-7-7--7-7-7-7-|

Guitar 2 

     G#m               E                 F#                B     Bmaj7th-sus4
  
e|-----x-x-x-x--x-x-x--x-x-x-x-x--x-x-x----------------------------------|
B|-----4-4-4-4--4-4-4--9-9-9-9-9--9-9-9--x-x-x-x-x--x-x-x--x-x-x---x-x-x-|
G|-----4-4-4-4--4-4-4--9-9-9-9-9--9-9-9--6-6-6-6-6--6-6-6--4-4-4---9-9-9-|
D|-----6-6-6-6--6-6-6--9-9-9-9-9--9-9-9--4-4-4-4-4--4-4-4--4-4-4---8-8-8-|
A|-----------------------------------------------------------------------|
E|--/4-------------------------------------------------------------------|



Such an ugly thing for Someone so beautiful 
That everytime you're on his side 

Guitar 1 

     G#m               E                 F#/Bb             B    Bmaj7th-sus4

e|---4-4-4-4-4--4-4-4--------------------------------------7-7--7-7--|
B|---4-4-4-4-4--4-4-4--9-9-9-9-9--9-9-9--7-7-7-7-7--7-7-7--7-7--7-7--|
G|---4-4-4-4-4--4-4-4--9-9-9-9-9--9-9-9--6-6-6-6-6--6-6-6--8-8--9-9--|
D|---6-6-6-6-6--6-6-6--9-9-9-9-9--9-9-9--4-4-4-4-4--4-4-4--9-9--8-8--|
A|---6-6-6-6-6--6-6-6--7-7-7-7-7--7-7-7--x-x-x-x-x--x-x-x--9-9--9-9--|
E|---4-4-4-4-4--4-4-4--------------------6-6-6-6-6--6-6-6--7-7--7-7--|

Guitar 2 

     G#m               E                 F#                B     Bmaj7th-sus4
  
e|---x-x-x-x-x--x-x-x--x-x-x-x-x--x-x-x---------------------------------|
B|---4-4-4-4-4--4-4-4--9-9-9-9-9--9-9-9--x-x-x-x-x--x-x-x--x-x-x--x-x-x-|
G|---4-4-4-4-4--4-4-4--9-9-9-9-9--9-9-9--6-6-6-6-6--6-6-6--4-4-4--9-9-9-|
D|---6-6-6-6-6--6-6-6--9-9-9-9-9--9-9-9--4-4-4-4-4--4-4-4--4-4-4--8-8-8-|
A|----------------------------------------------------------------------|
E|----------------------------------------------------------------------|




_____________________________________________________


Chrous 3


I know she knows that I'm not fond of asking 
True or false, it may be... well she's still out to get me

Guitar 1 

    E	     B    D#m     E	    B    D#m

e|-----------7-7--6-6-6-6-----------7-7--6-6-6-6---|
B|--9-9-9-9--7-7--7-7-7-7--9-9-9-9--7-7--7-7-7-7---|
G|--9-9-9-9--8-8--8-8-8-8--9-9-9-9--8-8--8-8-8-8---|
D|--9-9-9-9--9-9--8-8-8-8--9-9-9-9--9-9--8-8-8-8---|
A|--7-7-7-7--9-9--6-6-6-6--7-7-7-7--9-9--6-6-6-6---|
E|-----------7-7--6-6-6-6-----------7-7--6-6-6-6---|

Guitar 2 

    E	     B    D#m     E	    B    D#m

e|-----------7-7--6-6-6-6-----------7-7--6-6-6-6---|
B|--9-9-9-9--7-7--7-7-7-7--9-9-9-9--7-7--7-7-7-7---|
G|--9-9-9-9--8-8--8-8-8-8--9-9-9-9--8-8--8-8-8-8---|
D|--9-9-9-9--9-9--8-8-8-8--9-9-9-9--9-9--8-8-8-8---|
A|--7-7-7-7--9-9--6-6-6-6--7-7-7-7--9-9--6-6-6-6---|
E|-----------7-7--6-6-6-6-----------7-7--6-6-6-6---|



I know she knows that I'm not fond of asking 
True or false, it may be... she's still out to get me

Guitar 1 

    E	     G#m    D#m    E	    B    D#m

e|-----------4-4--x-6-6-6-----------7-7--6-6---|
B|--9-9-9-9--4-4--x-7-7-7--9-9-9-9--7-7--7-7---|
G|--9-9-9-9--4-4--x-6-6-6--9-9-9-9--8-8--8-8---|
D|--9-9-9-9--6-6--x-8-8-8--9-9-9-9--9-9--8-8---|
A|--7-7-7-7--6----x-6-6-6--7-7-7-7--9-9--6-6---|
E|-----------4------6-6-6-----------7-7--6-6---|

Guitar 2 

    E	     G#m    D#m    E	    B    D#m

e|-----------4-4--x-6-6-6-----------7-7--6-6---|
B|--9-9-9-9--4-4--x-7-7-7--9-9-9-9--7-7--7-7---|
G|--9-9-9-9--4-4--x-8-8-8--9-9-9-9--8-8--8-8---|
D|--9-9-9-9--6-6--x-8-8-8--9-9-9-9--9-9--8-8---|
A|--7-7-7-7--6----x-6-6-6--7-7-7-7--9-9--6-6---|
E|-----------4------6-6-6-----------7-7--6-6---|


____________________________________________________


Outro

Just don't let me down 
Just don't let me down 
Hold on to your kite 
Just don't let me down 
Just don't let me down 
Hold on to your kite 
Just don't let me down 
Just don't let me down 
Hold on to this kite 


Guitar 1 

    E	      D#m       G#m

e|------------6-6-6-6---4-4-4-4-4-4-4-4----|
B|--9-9-9-9---7-7-7-7---4-4-4-4-4-4-4-4----|
G|--9-9-9-9---6-6-6-6---4-4-4-4-4-4-4-4----|
D|--9-9-9-9---8-8-8-8---6-6-6-6-6-6-6-6----|
A|--7-7-7-7---6-6-6-6---6-6-6-6-6-6-6-6----|
E|------------6-6-6-6---4-4-4-4-4-4-4-4----|

Guitar 2 

    E	      D#m       G#m

e|------------6-6-6-6---4-4-4-4-4-4-4-4----|
B|--9-9-9-9---7-7-7-7---4-4-4-4-4-4-4-4----|
G|--9-9-9-9---6-6-6-6---4-4-4-4-4-4-4-4----|
D|--9-9-9-9---8-8-8-8---6-6-6-6-6-6-6-6----|
A|--7-7-7-7---6-6-6-6---6-6-6-6-6-6-6-6----|
E|------------6-6-6-6---4-4-4-4-4-4-4-4----|



The End 

By Mark Bryce



 
 
The Kooks - Naive Tab :: indexed at Ultimate Guitar.
Naive tabs @ 911Tabs

About the artist behind Naive Tab:

The Kooks (pronounced /kuːks/) are an indie rock band based in the United Kingdom. The band was formed in Brighton, England, in 2004, and currently consists of guitarist and lead vocalist Luke Pritchard, lead guitarist and back up vocalist Hugh Harris, drummer Paul Garred and temporary bassist Dan Logan, who replaced Max Rafferty in 2008. They have released two studio albums, both achieved commendable success on the UK Albums Chart, with their 2006 debut album Inside In/Inside Out peaking at #2, and their 2008 follow up Konk peaking at #1.

Indexed at Wikipedia.

Show us your talent, perform Naive Tab!

Here you can post a video or audio performance. Tell me more ...
Where can we find your performance? Tell me more ...
Your comment:
Please, log in to post your performance.