Artists by letter: A B C D E F G H I J K L M N O P Q R S T U V W X Y Z 0-9

 
Our Window Tab
Drop D
Capo 1st Fret

** Edit 1:
   Added a chord chart for further clarification
   Changed the Intro 2 section to be an octave higher as it sound better


Chords (I usually pluck the low D string every other time)

    A         Asus4
e|-----|    e|-----|
B|--2--|    B|--3--|
G|--2--|    G|--2--|
D|--2--|    D|--0--|
A|-----|    A|-----|
D|-(2)~|    D|--0~-|


[Intro 1]
Played on Piano
At one point the picking speeds up for a bar, so pay attention to the timing

e|-------------------------------------------------------|
B|-------------------------------------------------------|
G|---------2~------------2~------------------------------|
D|----------------------------- after a while -----------|
A|-----4-------------4-----------------------------------|
D|-2-------------0------------------------------0~~~~~~--|


[Intro 2]
Also on Piano, and pay attention to timing
** Changed an octave higher for better sound

e|------------------------------------12------------------------|
B|----14--(14)-14--12-----------14--14--14--12-14--12-----------|
G|--------------------14------------------------------14-11~~~--|
D|-----------------------14~~-----------------------------------|
A|--------------------------------------------------------------|
D|--------------------------------------------------------------|


[Verse 1]
Pluck the strings on this part if you want since it's played on piano

           A                         Asus4
Well it's four in the morning, things are getting heavy,

       A                                Asus4
And we both know that it's over, but we both weren't ready

          A                               Asus4
And you're talking like a stranger, so I don't know what to do

        A                        Asus4 
And I'm callous and I'm cruel to everyone but you


[Chorus]
Pluck here too if you want
It also sounds good when you open the D string on Asus4

        A                         Asus4
And the stars shining through our window

        A                         Asus4
And the stars shining through our window

        A                         Asus4
And it's been awhile since I stared at the stars

                 A                Asus4               Asus4
Yeah, it's been awhile, since I stared at the stars


[Verse 2]
You can strum here since the guitar comes in at this verse

 A                 Asus4
Spring can be the cruelest of months

    A                                   Asus4
But bringing in your life, yeah, we're promising so much

         A                                              Asus4
Like the pledge that you gave when you said that you'd always love me

        A                                  Asus4
But we both know by autumn you're like the color of leaves


[Chorus]
It also sounds good when you open the D string on Asus4

        A                         Asus4
And the stars shining through our window

        A                         Asus4
And the stars shining through our window

        A                         Asus4
And it's been awhile since I stared at the stars

                 A                Asus4               Asus4
Yeah, it's been awhile, since I stared at the stars


[Bridge]
Okay here it gets a little tricky I will have the tab first then the lyrics

e|--------0~~--------------------------|
B|-------------------------------------|
G|-------------------------------------|
D|------------------------------2------|
A|----2~~------2{p}0~~~~~~---------0---|
D|-2~~---------------------------------|

Well I don't think that it's the end
But I know we can't keep going
Well I don't think that it's the end
But I know we can't keep going


[Ending]
This part confounds me, but I'm pretty sure this is it
Strum the chords

   Esus      A
e|--4(0)-------------------0----------------------------------|
B|--5--------2------------------------------------------------|
G|--4--------2------------------------------------------------|
D|--2--------2---------------------------2--------------------|
A|-----------0---------2-------2(p)0~~~~~---0-----------------|
D|------------------2---------------------------2~~~~~~~~~~~~-|

'Cause blue skies are coming but I know that it's hard


************************************

| (n) Ghost note
| p   Pull-off
| ~   Vibrato

************************************
 
 
Noah And The Whale - Our Window Tab :: indexed at Ultimate Guitar.
Our Window tabs @ 911Tabs

Quick tip, so you can enjoy Our Window Tab even more:

YourChords.com Guitar Chords and Tabs Archive is currently indexing over 240'000 songs from 21'000+ different artists. And new chords just keep on coming in, so you will surely never run out of them.

Show us your talent, perform Our Window Tab!

Here you can post a video or audio performance. Tell me more ...
Where can we find your performance? Tell me more ...
Your comment:
Please, log in to post your performance.