Artists by letter: A B C D E F G H I J K L M N O P Q R S T U V W X Y Z 0-9

I Dont Imagine You And I Anymore Tab - I Have Dreams


 
I Dont Imagine You And I Anymore Tab
    e|--------------------------------------------|
    B|--------------------------------------------|
GTR G|-9/11/1313-13-13--13-14--11-11-13--13-13-13-|
 1  D|--------------------------------------------|
    A|-7/9/-1111-11-11--11-12--9--9--11--11-11-11-|
    E|--------------------------------------------|

When guitar two comes in both guitars hit distortion.

    e|--------------------------------------------|
    B|--------------------------------------------|
GTR G|-9/11/1313-13-13--13-14--11-11-13--13-13-13-|
 1  D|--------------------------------------------|
    A|-7/9/-1111-11-11--11-12--9--9--11--11-11-11-|
    E|--------------------------------------------|

    e|--------------------------------------------|
    B|--------------------------------------------|
GTR G|-----------13-13--13-14--11-11-13--13-13-13-|
 2  D|--------------------------------------------|
    A|-----------11-11--11-12--9--9--11--11-11-11-|
    E|--------------------------------------------|

    e|--------------------------------------------|
    B|--------------------------------------------|
GTR G|-9/11/1313-13-13--13-14--11-11-13--13-13-13-|
1+2 D|--------------------------------------------|
    A|-7/9/-1111-11-11--11-12--9--9--11--11-11-11-|
    E|--------------------------------------------|

    e|--------------------------------------------|
    B|--------------------------------------------|
GTR G|-9/11/1313-13-13--13-14--11-11-13--13-13-13-|
 1  D|--------------------------------------------|
    A|-7/9/-1111-11-11--11-12--9--9--11--11-11-11-|
    E|--------------------------------------------|

    e|--------------------------------------------|
    B|--------------------------------------------|
GTR G|-9/11/1313-16-16--16-18--14-14-16--16-16-16-|
 2  D|--------------------------------------------|
    A|-7/9-/1111-14-14--14-16--12-12-14--14-14-14-|
    E|--------------------------------------------|

    e|--------------------------|
    B|--------------------------|
GTR G|-9------------------------|
1+2 D|-6-(Let ring)-------------|
    A|-7------------------------|
    E|-------------0-(Let ring)-|

    e|-----12-----12-12-12-13-12-|
    B|-----17-----17-17-17-17-17-|
GTR G|---------------------------|
1+2 D|---------------------------| x16
    A|---------------------------|
    E|-0-0----0-0----------------|
       * *    * *

    e|-------------------|
    B|-------------------|
GTR G|-12-11-11-11-12-11-|
 1  D|-12-12-12-12-12-12-| x6
    A|-------------------|
    E|-------------------|
    e|-------------------|

    B|-------------------|
GTR G|-12-11-11-11-12-11-|
 1  D|-12-12-12-12-12-12-| x4
    A|-------------------|
    E|-------------------|

    e|-----------------------------------------------------|
    B|-----------------------------------------------------|
GTR G|--------------5--------------------------------------|
 2  D|-2------------5-(Ring out)-2------------2------------|
    A|-2-(Ring out)-3------------2-(Ring out)-2-(Ring out)-|
    E|-0-------------------------0------------0------------|

    e|-----------------------------------------------------------------------------------------|
    B|-----------------------8-------8-------8-------------------------------------------------|
GTR G|-----------------------------------------------------------------------------------------|
1+2 D|-2-------2-------2-----5-------5-------5-----2-------2-------2-----2-------2-------2-----|
    A|-2-2-2-2-2-2-2-2-2-2-2-3-3-3-3-3-3-3-3-3-3-3-2-2-2-2-2-2-2-2-2-2-2-2-2-2-2-2-2-2-2-2-2-2-|
    E|-0-0-0-0-0-0-0-0-0-0-0-----------------------0-0-0-0-0-0-0-0-0-0-0-0-0-0-0-0-0-0-0-0-0-0-|
         * * *   * * *   * *   * * *   * * *   * *   * * *   * * *   * *   * * *   * * *   * *

    B|-------------------|
GTR G|-12-11-11-11-12-11-|
 1  D|-12-12-12-12-12-12-| x4
    A|-------------------|
    E|-------------------|

    e|-----------------------------------------------------|
    B|-----------------------------------------------------|
GTR G|--------------5--------------------------------------|
 2  D|-2------------5-(Ring out)-2------------2------------|
    A|-2-(Ring out)-3------------2-(Ring out)-2-(Ring out)-|
    E|-0-------------------------0------------0------------|

When guitar two comes in both guitars hit distortion.

    e|--------------------------------------------|
    B|--------------------------------------------|
GTR G|-9/11/1313-13-13--13-14--11-11-13--13-13-13-|
 1  D|--------------------------------------------|
    A|-7/9/-1111-11-11--11-12--9--9--11--11-11-11-|
    E|--------------------------------------------|

    e|--------------------------------------------|
    B|--------------------------------------------|
GTR G|-----------13-13--13-14--11-11-13--13-13-13-|
 2  D|--------------------------------------------|
    A|-----------11-11--11-12--9--9--11--11-11-11-|
    E|--------------------------------------------|

    e|--------------------------------------------|
    B|--------------------------------------------|
GTR G|-9/11/1313-13-13--13-14--11-11-13--13-13-13-|
 1  D|--------------------------------------------| x2
    A|-7/9/-1111-11-11--11-12--9--9--11--11-11-11-|
    E|--------------------------------------------|

    e|--------------------------------------------|
    B|--------------------------------------------|
GTR G|-9/11/1313-16-16--16-18--14-14-16--16-16-16-|
 2  D|--------------------------------------------| x2
    A|-7/9-/1111-14-14--14-16--12-12-14--14-14-14-|
    E|--------------------------------------------|

    e|-----------------|
    B|-----------------|
GTR G|-9/11/1313-13-13-|
 1  D|-----------------|
    A|-7/9/-1111-11-11-|
    E|-----------------|

    e|--------------------------------------------|
    B|--------------------------------------------|
GTR G|-9/11/1313-16-16--16-18--14-14-16--16-16-16-|
 2  D|--------------------------------------------|
    A|-7/9-/1111-14-14--14-16--12-12-14--14-14-14-|
    E|--------------------------------------------|

    e|-------------------------------------|
    B|-------------------------------------|
GTR G|-9-9-999-9-9-9-888-6-6-666-6-6-6-666-|
1+2 D|-6-6-666-6-6-6-666-------------------| 1,3,
    A|-7-7-777-7-7-7-777-4-4-444-4-4-4-444-|
    E|-------------------------------------|

    e|--------------------------------------------------------|
    B|--------------------------------------------------------|
GTR G|-11-11-111111-13-13-131313-11-11-111111-13-13-13-131313-|
1+2 D|--------------------------------------------------------| 2,
    A|-9--9--9-9-9--11-11-111111-9--9--9-9-9--11-11-11-111111-|
    E|--------------------------------------------------------|

    e|-----------------------------------------------------|
    B|-----------------------------------------------------|
GTR G|-13-13-131313-14-14-141414-16-16-161616-18-18-181818-|
1+2 D|-----------------------------------------------------| 4,
    A|-11-11-111111-12-12-121212-14-14-141414-16-16-161616-|
    E|-----------------------------------------------------|

    e|-----------------------------------------------------------------------------------------|
    B|-----------------------------------------------------------------------------------------|
GTR G|-16--16--16--9-9-999-9-9-9-999-11-11-111111-13-13-13-131313-11-11-111111-13-13-13-131313-|
1+2 D|-----------------------------------------------------------------------------------------|
    A|-14--14--14--7-7-777-7-7-7-777-9--9--9-9-9--11-11-11-111111-9--9--9-9-9--11-11-11-111111-|
    E|-----------------------------------------------------------------------------------------|

e|-----------------------------------------------------------------------------------------|
B|-----------------------------------------------------------------------------------------|
G|-16--16--16--9-9-999-9-9-9-999-13-13-131313-14-14-14-141414-16-16-161616-18-18-18-181818-|
D|-----------------------------------------------------------------------------------------|
A|-14--14--14--7-7-777-7-7-7-777-11-11-111111-12-12-12-121212-14-14-141414-16-16-16-161616-|
E|-----------------------------------------------------------------------------------------|


    e|-----12-----12-12-12-13-12-|
    B|-----17-----17-17-17-17-17-|
GTR G|---------------------------|
1+2 D|---------------------------| x4
    A|---------------------------|
    E|-0-0----0-0----------------|
       * *    * *

    e|-----12-----12-----12-13-12-|
    B|-----17-----17-----17-17-17-|
GTR G|----------------------------|
1+2 D|----------------------------| x3
    A|----------------------------|
    E|-0-0----0-0----0-0----------|
       * *    * *    * *

    e|-----12-----12-----13----13----13----|
    B|-----17-----17--17----17----17----17-|
GTR G|-------------------------------------|
1+2 D|-------------------------------------| 
    A|-------------------------------------|
    E|-0-0----0-0--------------------------|
       * *    * *    

e|--------------|
B|--------------|
G|--------------|
D|-2------------|
A|-2-(Ring out)-|
E|-0------------|

 
 
I Have Dreams - I Dont Imagine You And I Anymore Tab :: indexed at Ultimate Guitar.
I Dont Imagine You And I Anymore tabs @ 911Tabs
People who played I Have Dreams - I Dont Imagine You And I Anymore Tab also played these songs by I Have Dreams:
Thank You For Having The Courage To Help A Friend Tab, I Dont Imagine You And I Anymore, Thank You For Having The Courage To Help A Friend

Quick tip, so you can enjoy I Dont Imagine You And I Anymore Tab even more:

If you don't really know how to deal with "Absus4" chord and his equally confusing brothers, just put the mouse cursor over them and you will be shown a helpful chord diagram.

Show us your talent, perform I Dont Imagine You And I Anymore Tab!

Here you can post a video or audio performance. Tell me more ...
Where can we find your performance? Tell me more ...
Your comment:
Please, log in to post your performance.