Artists by letter: A B C D E F G H I J K L M N O P Q R S T U V W X Y Z 0-9

 
Shes With Me Acoustic Tab
[Intro]
e|-------------------------------------------------------------------------|
B|-------------------------------------------------------------------------|
G|-------------------------------------------------------------------------| x2
D|---0------0-----0-----0-----0-----0-----0-----0-----0-----0-----0-----0--|
A|-----0------0-----0-----0-----0-----0-----0-----0-----0-----0-----0-----0|
D|12-----10-----5-----5-----5-----5-----6-----2-----0-----0-----0-----0----|

[Verse]
e|-------------------------------------------------------------------------|
B|-------------------------------------------------------------------------|
G|-------------------------------------------------------------------------|
D|---0------0-----0-----0-----0-----0-----0-----0-----0-----0-----0-----0--|
A|-----0------0-----0-----0-----0-----0-----0-----0-----0-----0-----0-----0|
D|12-----10-----5-----5-----5-----5-----6-----2-----0-----0-----0-----0----|
  It's too late                         She's long gone
e|-------------------------------------------------------------------------|
B|-------------------------------------------------------------------------|
G|-------------------------------------------------------------------------|
D|---0------0-----0-----0-----0-----0-----0-----0-----0-----0-----0-----0--|
A|-----0------0-----0-----0-----0-----0-----0-----0-----0-----0-----0-----0|
D|12-----10-----5-----5-----5-----5-----6-----2-----0-----0-----0-----0----|
  Let her sleep                         She's been strong
e|--------------------------------------------------------------------------------|
B|--------------------------------------------------------------------------------|
G|--------------------------------------------------------------------------------|
D|---0------0------0-----0-----0-----0-----0-----0-----0-----0-----0-----0-----0--|
A|-----0------0------0-----0-----0-----0-----0-----0-----0-----0-----0-----0-----0|
D|12-----14-----10-----9-----9-----9-----9-----9-----2-----0-----0-----0-----0----|
  She held my hand and                         said "Love I'm gonna fall"
e|-------------------------------------------------------------------------|
B|-------------------------------------------------------------------------|
G|-------------------------------------------------------------------------|
D|---0------0-----0-----0-----0-----0-----0-----0-----0-----0-----0-----0--|
A|-----0------0-----0-----0-----0-----0-----0-----0-----0-----0-----0-----0|
D|12-----10-----5-----5-----5-----5-----6-----2-----0-----0-----0-----0----|
  Well don't you worry...baby           'cuz I'll fall along

[Chorus]
e|-------------------------------------------------------------------------|
B|-------------------------------------------------------------------------|
G|-------------------------------------------------------------------------|
D|---0------0-----0-----0-----0-----0-----0-----0-----0-----0-----0-----0--|
A|-----0------0-----0-----0-----0-----0-----0-----0-----0-----0-----0-----0|
D|12-----10-----5-----5-----5-----5-----6-----2-----0-----0-----0-----0----|
  She's with me...                      She's with me
e|-------------------------------------------------------------------------|
B|-------------------------------------------------------------------------|
G|-------------------------------------------------------------------------|
D|---0------0-----0-----0-----0-----0-----0-----0-----0-----0-----0-----0--|
A|-----0------0-----0-----0-----0-----0-----0-----0-----0-----0-----0-----0|
D|12-----10-----5-----5-----5-----5-----6-----2-----0-----0-----0-----0----|
  She's with me...                      She's with me
e|-------------------------------------------------------------------------|
B|-------------------------------------------------------------------------|
G|-------------------------------------------------------------------------|
D|---0------0-----0-----0-----0-----0-----0-----0-----0-----0-----0-----0--|
A|-----0------0-----0-----0-----0-----0-----0-----0-----0-----0-----0-----0|
D|12-----10-----5-----5-----5-----5-----6-----2-----0-----0-----0-----0----|
  She's with me...                      She's with me
e|-----------------------------------------------------------------------------------------------------|
B|-----------------------------------------------------------------------------------------------------|
G|----------------------------------------------------------------------------------2-----2-----2-----2|
D|---0------0-----0-----0-----0-----0-----0-----0-----0-----0-----0-----0-----0------0------0------0---|
A|-----0------0-----0-----0-----0-----0-----0-----0-----0-----0-----0-----0-----0----------------------|
D|12-----10-----5-----5-----5-----5-----8-----8-----8-----8-----8-----8-----0-----0-----0-----0-----0--|
  She's with me...                      She's with me

[Bridge]
e|----------------------------------------------------------------------------------------------------------|
B|----------------------------------------------------------------------------------------------------------|
G|--2-----2-----2-----2-----6-----6-----6-----6------11-------11-------11-----11------11-----9-----7-----5--|
D|----3-----3-----3-----3-----7-----7-----7-----7-------12-------12-------12-----12------0-----0-----0-----0|
A|----------------------------------------------------------------------------------------------------------|
D|3-----3-----3-----3-----7-----7-----7-----7-----12-------12-------12-------12-----0------0-----0-----0----|

e|-------------------------------------------------------------------------------------|
B|-------------------------------------------------------------------------------------|
G|--2-----2-----2-----2-----6-----6-----6-----6-----7-----7-----7-----7-----7-----7----|
D|----3-----3-----3-----3-----7-----7-----7-----7-----7-----7-----7-----7-----7-----7--|
A|-------------------------------------------------------------------------------------|
D|3-----3-----3-----3-----7-----7-----7-----7-----5-----5-----5-----5-----5-----5-----5|

[Verse]
e|--------------------------------------------------------------------------------|
B|--------------------------------------------------------------------------------|
G|--------------------------------------------------------------------------------|
D|---0------0-----0-----0-----0-----0-----0-----0-----0-----0-----0-----0---------|
A|-----0------0-----0-----0-----0-----0-----0-----0-----0-----0-----0-----0-------|
D|12-----10-----5-----5-----5-----5-----6-----2-----0-----0-----0-----0-----------|
  The tap still drips                   The dog won't stay
e|--------------------------------------------------------------------------------|
B|--------------------------------------------------------------------------------|
G|--------------------------------------------------------------------------------|
D|---0------0-----0-----0-----0-----0-----0-----0-----0-----0-----0-----0---------|
A|-----0------0-----0-----0-----0-----0-----0-----0-----0-----0-----0-----0-------|
D|12-----10-----5-----5-----5-----5-----6-----2-----0-----0-----0-----0-----------|
  The wolf will howl                    But he'll howl anyway
e|--------------------------------------------------------------------------------|
B|--------------------------------------------------------------------------------|
G|--------------------------------------------------------------------------------|
D|---0------0------0-----0-----0-----0-----0-----0-----0-----0-----0-----0-----0--|
A|-----0------0------0-----0-----0-----0-----0-----0-----0-----0-----0-----0-----0|
D|12-----14-----10-----9-----9-----9-----9-----9-----2-----0-----0-----0-----0----|
  I'm still here                               Never strong
e|---------------------------------------------------------------------------|
B|---------------------------------------------------------------------------|
G|---------------------------------------------------------------------------|
D|---0------0-----0-----0-----0-----0-----0-----0-----0-----0-----0-----0----|
A|-----0------0-----0-----0-----0-----0-----0-----0-----0-----0-----0-----0--|
D|12-----10-----5-----5-----5-----5-----8-----8-----8-----8-----8-----8-----8|
  Well don't you worry...baby...        'cuz I'll fall along

[Chorus]
e|-------------------------------------------------------------------------|
B|-------------------------------------------------------------------------|
G|-------------------------------------------------------------------------|
D|---0------0-----0-----0-----0-----0-----0-----0-----0-----0-----0-----0--|
A|-----0------0-----0-----0-----0-----0-----0-----0-----0-----0-----0-----0|
D|12-----10-----5-----5-----5-----5-----6-----2-----0-----0-----0-----0----|
  She's with me...                      She's with me
e|-------------------------------------------------------------------------|
B|-------------------------------------------------------------------------|
G|-------------------------------------------------------------------------|
D|---0------0-----0-----0-----0-----0-----0-----0-----0-----0-----0-----0--|
A|-----0------0-----0-----0-----0-----0-----0-----0-----0-----0-----0-----0|
D|12-----10-----5-----5-----5-----5-----6-----2-----0-----0-----0-----0----|
  She's with me...                      She's with me
e|-----------------------------------------------------------------------------|
B|-----------------------------------------------------------------------------|
G|-----------------------------------------------------------------------------|
D|---0------0------0------0------0------0-----0-----0-----0-----0-----0-----0--|
A|-----0------0------0------0------0------0-----0-----0-----0-----0-----0-----0|
D|12-----14-----10-----10-----10-----10-----6-----2-----0-----0-----0-----0----|
  She's with me...                          She's with me
e|---------------------------------------------------------------------|
B|---------------------------------------------------------------------|
G|---------------------------------------------------------------------|
D|---0------0-----0-----0-----0-----0-----0-----0-----0-----0-----0----|
A|-----0------0-----0-----0-----0-----0-----0-----0-----0-----0-----0--|
D|12-----10-----5-----5-----5-----5-----8-----8-----8-----8-----8-----8|
  She's with me...                      She's with me

[Outro]
e|-----------------------------------------------------------------------|
B|--6-----5-----3-----3-----3-----3-----5-----2-----3-----3-----3-----3--|
G|----7-----5-----3-----3-----3-----3-----5-----2-----3-----3-----3-----3|
D|-----------------------------------------------------------------------|
A|5-----3-----1-----1-----1-----1-----3-----0-----1-----1-----1-----1----|
D|-----------------------------------------------------------------------|

e|-----------------------------------------------------------------------|
B|--6-----5-----3-----3-----3-----3-----5-----2-----3-----3-----3-----3--|
G|----7-----5-----3-----3-----3-----3-----5-----2-----0-----0-----0-----0|
D|-----------------------------------------------------------------------|
A|5-----3-----1-----1-----1-----1-----3-----0----------------------------|
D|------------------------------------------------3-----3-----3-----3----|


e|-----------------------------------------------------------------------|
B|--6-----8-----5-----5-----5-----5-----2-----2-----3-----3-----3-----3--|
G|----7-----9-----5-----5-----5-----5-----2-----2-----0-----0-----0-----0|
D|-----------------------------------------------------------------------|
A|5-----7-----3-----3-----3-----3-----0-----0----------------------------|
D|------------------------------------------------3-----3-----3-----3----|

e|--------------------------------------------------------------------------------------|
B|--6-----5-----3-----3-----3-----3-----5-----2-----3-----3-----3-----3-----3-----3----3|
G|----7-----5-----3-----3-----3-----3-----5-----2-----0-----0-----0-----0-----0-----0--0|
D|-------------------------------------------------------------------------------------0|
A|5-----3-----1-----1-----1-----1-----3-----0-------------------------------------------|
D|------------------------------------------------3-----3-----3-----3-----3-----3------3|
 
 
De Staat - Shes With Me Acoustic Tab :: indexed at Ultimate Guitar.
Shes With Me Acoustic tabs @ 911Tabs

Quick tip, so you can enjoy Shes With Me Acoustic Tab even more:

If you spend just 10 seconds to register, you will be able to comment on all the chords and tabs and rate them. You will as well be able to comment on videos of your fellow guitarists and give them ratings from 1 to 5 ... And - of course - you can share your own videos with them and see what they think of you. :)
Click here to join us!

Show us your talent, perform Shes With Me Acoustic Tab!

Here you can post a video or audio performance. Tell me more ...
Where can we find your performance? Tell me more ...
Your comment:
Please, log in to post your performance.