Artists by letter: A B C D E F G H I J K L M N O P Q R S T U V W X Y Z 0-9

 
Forever Now Chords
[INTRO]
  A          B            C#m7                A          B            C#m7
E|---------|------------|-------------|-----|---------|-------------|-----------|
B|-------7-|------------|-------------|-----|-------7-|-------------|-----------|
G|----6----|--8------4--|-------------|-----|----6----|--8---------4|-----------|
D|-7-------|------6-----|--4---6---6--|-----|-7-------|------6--4---|-6----6--4-|
A|---------|------------|-------------|-----|---------|-------------|-----------|
E|---------|------------|-------------|-----|---------|-------------|-----------|
   C#m      A          B                C#m7  Bm         E    E/G#
E|--------|----------|----------------|-5--------------|-------------------|
B|--------|-------7--|-----------5--7-|----8-----------|----------5--------|
G|--------|----6-----|-8---8--8-------|-------6--------|-------6------8----|
D|-6------|-7--------|----------------|----------6--4--|-------------------|
A|-----6--|----------|----------------|----------------|-7-----------------|
E|--------|----------|----------------|----------------|-------------------|

   A              B
E|--------------|--------------------|
B|------------7-|-------------5---7--|
G|-6------6-----|-8--8--8--8---------|
D|----7---------|--------------------|
A|--------------|--------------------|
E|--------------|--------------------|


[VERSE 1] 


E 
Taking her seat at the bar
E                         A  B
She don't talk to anyone~~~~~~
E
Plane leaving soon for afar
                     E  B    Bsus4  B  C#m
Where she don't know anyone~~~~~~~~~
                   D
She thinks of her precious time
C#m                 B
There's no-one she leaves behind
           B         A     A/G#  F#m7
Who could change her mind

                     A        B    F#m7
Is this the way it's gonna be forever
                     A        B    F#m7
Is this the way it's gonna be forever
                     A
Is this the way it's gonna be
   B    E   Esus4  E
Forever now


[CHORUS]
E
Take a whole life's lonliness
A       B           E
Wrap it up in some tenderness
A       B           E
Send it off to some emptiness
A    B       E    Esus4  E
With all my love

          E
It's only you and me
A            B         E
There'll be nothing we need to see
A    B             F#m
Only one thing can set you free
A   B      E   Esus4  E
Is all my love


[VERSE 2] 

E
Making his way down the stairs
E                               A B
He can't help but looking back
E                          E     B     Bsus4  B  C#m
Thinks of the things that they shared
                    D
There'll be no more turning back
C#m              B
He thinks of the day they met
                    B       A    
The words that she said of love
C#m      B
He just can't forget


F#m7              A         B  F#m7                 
Just the way they wanna be forever
                  A         B  F#m7
Just the way they wanna be forever
                 A
Tell me it will always be
   B    E    Esus4 E
Forever now


[CHORUS]
                     E
Take a whole life's lonliness
A       B            E
Wrap it up in some tenderness
A       B            E
Send it off to some emptiness
A     B      E    Esus4 E
With all my love
          E
It's only you and me
A            B         E
There'll be nothing we need to see
A    B             F#m
Only one thing can set you free
A   B      E    Esus4  E
Is all my love
           E
It's only you and me
A            B          E
There'll be nothing we need to see
E                  F#m
Only one thing can set you free
A   B       E       
Is all our love, oh yeah oh yeah


[SOLO]

A - B - C#m (x3)
A - B - E
 
 
Cold Chisel - Forever Now Chords :: indexed at Ultimate Guitar.
Forever Now tabs @ 911Tabs
People who played Cold Chisel - Forever Now Chords also played these songs by Cold Chisel:
Forever Now Tab, When The War Is Over Tab, My Baby Tab, Working Class Man Chords, Bow River Chords, Bow River Chords

About the artist behind Forever Now Chords:

Cold Chisel are a rock band from Adelaide, Australia. They are regarded as the canonical example of Australian pub rock, with a string of hits throughout the 1970s and 1980s, and they are acknowledged as one of the most popular and successful Australian groups of the period, although this success and acclaim was almost completely restricted to Australia and New Zealand.

Indexed at Wikipedia.

Show us your talent, perform Forever Now Chords!

Here you can post a video or audio performance. Tell me more ...
Where can we find your performance? Tell me more ...
Your comment:
Please, log in to post your performance.