Artists by letter: A B C D E F G H I J K L M N O P Q R S T U V W X Y Z 0-9

Thorn Becomes A Rose Acoustic Tab - Chris Trapper


 
Thorn Becomes A Rose Acoustic Tab
[Intro]

D |---------------------------------------------------|--------4p-----0---------|---|--
A |---------------------------------------------------|--------0------4p--------|---|--
F#|--------------2p-------------4p----------------6---|--------0------0---------|---|--
D |--------------x--------------x---4----2---0----0---|--2x----0------0---------|4x-|--
A |--2-----2-----2----5----5----5---0----0---0----7---|--------5------5---------|---|--
D |--2-----2-----2----5----5----5---0----0---0----7---|--------5------5---------|---|--

[Verse]

D |-------------------------------------------------------------------------------|
A |-------------------------------------------------------------------------------| Here's to the holiday...
F#|--------4p------------4p------------4p--------------------4--4--4--/--6--6--6--|
D |----------------------x-----------------------------------0--0--0-----0--0--0--|
A |--0--0--0--/--5---5---5-------0--0--0---7--7--7--/--9--/--5--5--5--/--7--7--7--|
D |--0--0--0--/--5---5---5-------0--0--0---7--7--7--/--9--/--5--5--5--/--7--7--7--|

     I'll see ya next time....
D |---------------------------------------------------|--------4p-----0---------|---|--0
A |---------------------------------------------------|--------0------4p--------|---|--0
F#|--------------2p-------------4p----------------6---|--------0------0---------|---|--0
D |--------------x--------------x---4----2---0----0---|--2x----0------0---------|4x-|--x ooohhhhhh...
A |--2-----2-----2----5----5----5---0----0---0----7---|--------5------5---------|---|--5
D |--2-----2-----2----5----5----5---0----0---0----7---|--------5------5---------|---|--4


[Chorus]
D |--0-----0-----0---0------0----0---0---0----------------|
A |--4p----0-----4p--0------0----0---0---0----------------| we believe in dignity
F#|--0-----2p----0---2p-----0----4p--0---4p---0--2p-0--2p-|
D |--0-----0-----x---x------x----x---x---x----0--0--0--0--|
A |--2-----2-----2---2-5----5----5---5---5----2--2--2--2--|
D |--2-----2-----2---2-5----5----5---5---5----2--2--2--2--|



D |---------------------------------------------------------------------------|
A |---------------------------------------------------------------------------|When Thorns become a rose...
F#|--11---/---6---/----4---------11---/---6---/--2p---------------------------|
D |--0--------0--------0---------0----/---0---/--0----------------------------|
A |--x----/---7---/----5---------x--------7---/--2----------------------------|
D |--12---/---7---/----5---------12---/---7---/--2----------------------------|

Play intro


D |---------------------------------------------------|--------4p-----0---------|---|--
A |---------------------------------------------------|--------0------4p--------|---|--
F#|--------------2p-------------4p----------------6---|--------0------0---------|---|--
D |--------------x--------------x---4----2---0----0---|--2x----0------0---------|4x-|--
A |--2-----2-----2----5----5----5---0----0---0----7---|--------5------5---------|---|--
D |--2-----2-----2----5----5----5---0----0---0----7---|--------5------5---------|---|--


[repeat verse]

[repeat chorus]


[Outro]


D |---------------------------------------------------------------------------|
A |---------------------------------------------------------------------------|When Thorns become a rose...
F#|--11---/---6---/----4---------11---/---6---/--2p---------------------------|
D |--0--------0--------0---------0----/---0---/--0----------------------------|
A |--x----/---7---/----5---------x--------7---/--2----------------------------|
D |--12---/---7---/----5---------12---/---7---/--2----------------------------|



************************************

| x   Dead note
| h   Hammer-on
| p   Pull-off
| /   Slide 
| PM  Palm mute

************************************
 
 
Chris Trapper - Thorn Becomes A Rose Acoustic Tab :: indexed at Ultimate Guitar.
Thorn Becomes A Rose Acoustic tabs @ 911Tabs
People who played Chris Trapper - Thorn Becomes A Rose Acoustic Tab also played these songs by Chris Trapper:
Into The Bright Lights Chords, Gone Again Chords, Forget Me Chords, Angel Appearing In A Small Cafe Chords, Birthday Song Chords, Perfumed Hair Chords

Quick tip, so you can enjoy Thorn Becomes A Rose Acoustic Tab even more:

After the registration (which takes just 10 seconds, remember?) you will be able to use your profile - your very own piece of YourChords.com.

Show us your talent, perform Thorn Becomes A Rose Acoustic Tab!

Here you can post a video or audio performance. Tell me more ...
Where can we find your performance? Tell me more ...
Your comment:
Please, log in to post your performance.