Artists by letter: A B C D E F G H I J K L M N O P Q R S T U V W X Y Z 0-9

We Wish You A Merry Christmas Tab - Weezer


 
We Wish You A Merry Christmas Tab
[Intro]
D||--2-------2------|--------------2---|-----------------|------------------|
A||----3-----3------|----0---0--2--3---|-----------------|------------------|
F||------3---2------|----0---------2---|-----------------|------------------|
C||-----------------|----0-------------|-----------------|------------------|
G||-----------------|----2-------------|-----------------|------------------|
C||-----------------|----0-------------|-----------------|------------------|

[Verse 1]
D||-----------------|------------------|-----------------|------------------|
A||-----------------|------------------|-----------------|------------------|
F||--7-7-7--4-4-4---|--9-9-9--2-2-2----|-11-11-11-4-4-4--|--4-4--6--7-------|
C||--7-7-7--4-4-4---|--9-9-9--2-2-2----|-11-11-11-4-4-4--|--4-4--6--7-------|
G||--5-5-5--2-2-2---|--7-7-7--0-0-0----|-9--9--9--2-2-2--|--2-2--4--5-------|
C||-----------------|------------------|-----------------|------------------|

D||-----------------|------------------|-----------------|------------------|
A||-----------------|------------------|-----------------|------------------|
F||--7-7-7--4-4-4---|--9-9-9--2-2-2----|-7-7-7--11-11-11-|---4-4--6--7------|
C||--7-7-7--4-4-4---|--9-9-9--2-2-2----|-7-7-7--11-11-11-|---4-4--6--7------|
G||--5-5-5--2-2-2---|--7-7-7--0-0-0----|-5-5-5--9--9--9--|---2-2--4--5------|
C||-----------------|------------------|-----------------|------------------|

[Verse 2]
D||-----------------|------------------|-----------------|------------------|
A||-----------------|------------------|-----------------|------------------|
F||--7-7-7--4-4-4---|--9-9-9--2-2-2----|-11-11-11-4-4-4--|--4-4--6--7-------|
C||--7-7-7--4-4-4---|--9-9-9--2-2-2----|-11-11-11-4-4-4--|--4-4--6--7-------|
G||--5-5-5--2-2-2---|--7-7-7--0-0-0----|-9--9--9--2-2-2--|--2-2--4--5-------|
C||-----------------|------------------|-----------------|------------------|


D||-----------------|------------------|-----------------|------------------|
A||-----------------|------------------|-----------------|------------------|
F||--7-7-7--4-4-4---|--9-9-9--2-2-2----|-11-11-11-4-4-4--|--4-4--6--7-------|
C||--7-7-7--4-4-4---|--9-9-9--2-2-2----|-11-11-11-4-4-4--|--4-4--6--7-------|
G||--5-5-5--2-2-2---|--7-7-7--0-0-0----|-9--9--9--2-2-2--|--2-2--4--5-------|
C||-----------------|------------------|-----------------|------------------|

[Verse 3] 
(Short, same as Verse 1):
D||-----------------|------------------|-----------------|------------------|
A||-----------------|------------------|-----------------|------------------|
F||--7-7-7--4-4-4---|--9-9-9--2-2-2----|-11-11-11-4-4-4--|--4-4--6--7-------|
C||--7-7-7--4-4-4---|--9-9-9--2-2-2----|-11-11-11-4-4-4--|--4-4--6--7-------|
G||--5-5-5--2-2-2---|--7-7-7--0-0-0----|-9--9--9--2-2-2--|--2-2--4--5-------|
C||-----------------|------------------|-----------------|------------------|

[Solo]
D||------------------------------------|-----------12-14--------------------|
A||--14b15-14~---14b15r14--12----------|--12-14-15--------------------------|
F||---------------------------14~------|-----------------15~---15b16r15--11-|
C||------------------------------------|------------------------------------|
G||------------------------------------|------------------------------------|
C||------------------------------------|------------------------------------|

[Final Verse]
D||-----------------|------------------|-----------------|------------------|
A||-----------------|------------------|-----------------|------------------|
F||-7-7-7--9-9-9----|--4-4--8--9-9-9---|-2-2-2--11-11-11-|--4-4--6--7-------|
C||-7-7-7--9-9-9----|--4-4--8--9-9-9---|-2-2-2--11-11-11-|--4-4--6--7-------|
G||-5-5-5--7-7-7----|--2-2--6--7-7-7---|-0-0-0--9--9--9--|--2-2--4--5-------|
C||-----------------|------------------|-----------------|------------------|


D||-----------------|------------------|-----------------|------------------|
A||-----------------|------------------|-----------------|------------------|
F||-10-10-10--7-7-7-|--12-12-12--5-5-5-|-14-14-14--7-7-7-|--3-3--9--10------|
C||-10-10-10--7-7-7-|--12-12-12--5-5-5-|-14-14-14--7-7-7-|--3-3--9--10------|
G||-8--8--8---5-5-5-|--10-10-10--3-3-3-|-12-12-12--5-5-5-|--1-1--7--8-------|
C||-----------------|------------------|-----------------|------------------|

 

************************************

| r  Release
| b  Bend
| ~  Vibrato

************************************
 
 
Weezer - We Wish You A Merry Christmas Tab :: indexed at Ultimate Guitar.
We Wish You A Merry Christmas tabs @ 911Tabs

About the artist behind We Wish You A Merry Christmas Tab:

Weezer (IPA: /ˈwizɚ/) is a Grammy nominated American rock band from Los Angeles, California formed in 1992 by Rivers Cuomo (lead vocals, guitar), Patrick Wilson (drums, backing vocals), Matt Sharp (bass, backing vocals), and Jason Cropper (guitar, backing vocals), with the last two replaced by Mikey Welsh and Brian Bell, respectively. Mikey Welsh was later replaced with Scott Shriner.[1] They have released six full-length albums, three EPs, and a DVD; the first album was later re-released as a remastered deluxe edition in 2004. Weezer recently released their sixth album on June 3, 2008. They have sold more than 7 million records to date in the US.[2]

Indexed at Wikipedia.

Show us your talent, perform We Wish You A Merry Christmas Tab!

Here you can post a video or audio performance. Tell me more ...
Where can we find your performance? Tell me more ...
Your comment:
Please, log in to post your performance.