Artists by letter: A B C D E F G H I J K L M N O P Q R S T U V W X Y Z 0-9

 
Hosanna Tab
[Intro]

              C#m                     G#m 
e|-----------4-----------4---|----------------------------|
B|--------5---------5h7------|--------4-----------4-------|
G|-----6--------6------------|-----4---------4h6----------|
D|---------------------------|--6---------6---------------|
A|---------------------------|----------------------------|
E|---------------------------|----------------------------|
            A
e|-------------------7----|----------------9-----------|
B|----------5-------------|--------7-------------------|
G|------6-----------------|-----8----------------------|
D|---7----------7---------|--9---------9---------------|
A|------------------------|----------------------------|
E|------------------------|----------------------------|



Lick after verse
e|----------------|     
B|--------9-------|
G|-----9----------| 3x 
D|--9-------------|
A|----------------|
E|----------------|

e|--------------------------|
B|-------12-------9h10p9----|
G|----9---------------------|
D|-9----------9-------------|
A|--------------------------|
E|--------------------------|


[Solo]

e|--------------------------------|
B|--12-12-12-12-12~--9--7--9------|
G|--------------------------------| x2
D|--------------------------------|
A|--------------------------------|
E|--------------------------------|

e|---------------------------------------------------------------------------|
B|--10-10-10-10-10~--9-7-5--4-4-4-4-5-5-7-7~---------------------------------|
G|---------------------------------------------------------------------------|
D|---------------------------------------------------------------------------|
A|---------------------------------------------------------------------------|
E|---------------------------------------------------------------------------|

e|--------------------------------|
B|--12-12-12-12-12~--9--7--9------|
G|--------------------------------| x2
D|--------------------------------|
A|--------------------------------|
E|--------------------------------|

e|-------12-------12---------14----------14----------------------------------|
B|-10-10----10-10-----12-12------12--12--------------------------------------|
G|---------------------------------------------------------------------------|
D|---------------------------------------------------------------------------|
A|---------------------------------------------------------------------------|
E|---------------------------------------------------------------------------|



************************************

| h  Hammer-on
| p  Pull-off
| ~  Vibrato

************************************
 
 
Hillsong - Hosanna Tab :: indexed at Ultimate Guitar.
Hosanna tabs @ 911Tabs

Quick tip, so you can enjoy Hosanna Tab even more:

You might want to transpose the song if it is too high or too low for you to sing. Just click the desired option while playing a song and all the chords will automatically be transponded into a new key.

Show us your talent, perform Hosanna Tab!

Here you can post a video or audio performance. Tell me more ...
Where can we find your performance? Tell me more ...
Your comment:
Please, log in to post your performance.