Artists by letter: A B C D E F G H I J K L M N O P Q R S T U V W X Y Z 0-9

 
Weekend
RIFF

E||--------------------------------|----------------------------------|
A||4--------4-----2----2-----------|4--------4-----2----2-2-2---------|
D||6--6--2--6--2--4----4--2-2--4-4-|6--6--2--6--2--4----4-4-4--2-2--0-|
G||---8--4-----4----------4-4--6-6-|---8--4-----4--------------4-4--2-|


C#m
Con un sello de hace dos días
D2
Tengo un pase libre a la pista
C#m
Sin pelar ninguna tarjeta
D2
Está todo bien con la puerta
C#m
Voy matando el tiempo en un flipper
D2
Hasta que aparezca algún dealer
C#m
Glucolin cortado con merca
D2
Para yonquis de discoteca


SOBRE RIFF:

Anarco en la discoteque... discoteque
Anarcoma disco... estado de weekend


PUENTE:

E|0----------4--4----------|
A|---4-4-4-------------5-5-|

(se puede reemplazar por C#m - D2 con los mismos tiempos que las estrofas)

C#m
Me hago un trago high en la barra
D2
en el risko truena una banda
C#m
Un Dj de púas conecta
D2
Un subsuelo con sus bandejas
C#m
Mientras la policía practica
D2
Un allanamiento en la pista
C#m
Una piba en trance me encierra
D2
En un baño de discoteca.

Anarco en la discoteque... discoteque
Anarcoma disco... estado de weekend

PUENTE 2:
E||4----4/6--7-----------------|
A||6----6/8--9-----------------|
D||6----6/8--9----4----4/6--7--|
G||---------------6----6/8--9--|
B||---------------7----7/9--10-|
e||----------------------------|


RIFF - ESTRIBILLO


NOTA: la guitarra tiene mucho efecto y esta bastante tapada excepto cuando
toca el riff pero creo que esta todo OK
Los acordes se pueden tocar en quintas (como suena en el disco) pero si se
usa la  guitarra mas bien limpia es mejor tocarlos completos.

:)
 
 
Demonios De Tasmania - Weekend :: indexed at Ultimate Guitar.
Weekend tabs @ 911Tabs
People who played Demonios De Tasmania - Weekend also played these songs by Demonios De Tasmania:
Praline Chords, Weekend Chords, Ital Park Chords, Latitud 69 Chords, No Tienes Precio Chords, No Tienes Precio

Quick tip, so you can enjoy Weekend even more:

YourChords.com Guitar Chords and Tabs Archive is currently indexing over 240'000 songs from 21'000+ different artists. And new chords just keep on coming in, so you will surely never run out of them.

Show us your talent, perform Weekend!

Here you can post a video or audio performance. Tell me more ...
Where can we find your performance? Tell me more ...
Your comment:
Please, log in to post your performance.