Artists by letter: A B C D E F G H I J K L M N O P Q R S T U V W X Y Z 0-9

 
00 Buck Shot
--- VOMIT REMNANTS --- 
                                "00 Buck Shot" 
                     From album: "Indefensible Vehemence"

TABULATURE LEGEND: 
                   " - tremolo             h - hammer on            
                   ~ - vibrato             \ - slide down 
                   p - pull off            / - slide down 
                  tr - tremolo picking     ^ - pinch harmonics      
                   = - sustained note      b - bend string          
                p.m. - palm muting         t - tapping

TUNING INFO: Vomit Remnants use 7 string guitars since this EP, 
anyway I transcribe it as 6-string tuned to B (B,E,A,d,gb,b).

[Intro] 
|-----------------------------| 
|-----------------------------| 
|-----------------------------| 
|-----------------------5--4--| 
|-2-2-2---4/5\4-444-----3--2--| 
|-0-0-0-0-2/3\2-----333-3--2--| 
| . . . .       ... ...       | 
|-----------------------------| 
|-----------------------------| 
|-----------------------------| 
|-----------------------5--4--| 
|-2-2-2-----------------3--2--| 
|-0-0-0-----------------3--2--| 
  . . .

[Riff 1 (x8)]                          [Break] 
||-----------------------------------||---------------------| 
||o---------------------------------o||---------------------| 
||-----------------------------------||---------------------| 
||------------------------------5\4--||-2-------------------| 
||o---4---5---4---5---4---5---4-3\2-o||-2-------------------| 
||--0-2-0-3-0-2-0-3-0-2-0-3-0-2------||-0------------11\----| 
    . . . . . . . . . . . . . .         .

[Riff 2 (x4)] 
||--------------------|----------------------|| 
||o-------------------|---------------------o|| 
||--------------------|----------------------|| 
||--------------------|------------------^---|| 
||o-4--5--4--5--4--5--|-4-4-5-5-4--5--4--3~-o|| 
||--2--3--2--3--2--3--|-2-2-3-3-2--3--2------|| 
    .  .  .  .  .  .    . . . . .  .  .

[Riff 3 (x4)] 
||-----------------------------------------------------|| 
||o---------------------------------------------------o|| 
||-----------------------------------------------------|| 
||-----------------------------------------------------|| 
||o-4--5-5-4--5-5-4-4-5-5-4--5-5-4--4--5-5-4-5555-----o|| 
||--2--3-3-2--3-3-2-2-3-3-2--3-3-2--2--3-3-2-----4444--|| 
    .  . . .  . . . . . . .  . . .  .  . . .

[RIFF 2 (x4)]

[Outro A] 
|-------------------|---------------------------| 
|-------------------|---------------------------| 
|-------------------|---------------------------| 
|-------------------|---------------------------| 
|-------------------|---------------------------| 
|-------------------|---------------------------| 
|                   |                           | 
|-------------------|---------------------------| 
|-------------------|---------------------------| 
|-------------------|---------------------------| 
|-------------------|------------------^--------| 
|-4--5--4--5--4--5--|-4-4-5-5-4--5--4--3~~~~~~--| 
|-2--3--2--3--2--3--|-2-2-3-3-2--3--2-----------| 
  .  .  .  .  .  .    . . . . .  .  .

[RIFF 3 (x4)] /break\

[Riff 4 (x4)] 
||--------------------------------|| 
||o------------------------------o|| 
||--------------------------------|| 
||--------------------------------|| 
||o----------4----5----4-5-4-2-3-o|| 
||--00001--0-2--0-3--0-2-3-2-0-1--|| 
    .....  . .  . .  . . . . . .

[Riff 5 (x4)] 
||---------------------------------|| 
||o-------------------------------o|| 
||---------------------------------|| 
||--^------------------------------|| 
||o-3~--------4----5----4-5-4-2-3-o|| 
||-----0000-0-2--0-3--0-2-3-2-0-1--|| 
            . .  . .  . . . . . .

[Outro B] 
|-----------------------------| 
|-----------------------------| 
|-----------------------------| 
|-----------------------------| 
|---4----5----4----5--5-4-5-3-| 
|-0-2--0-3--0-2--0-3--3-2-3-1-| 
  . .  . .  . .  . .  . . . .

[Riff 6 (x4)] 
||----------------------------------|- 
||o---------------------------------|- 
||----------------------------------|- 
||----------------------------------|- 
||o---5-4---3---------5-4---3-------|- 
||--3-----5---5-4-5-3-----5---5-3-2-|- 
    . . . . . . . . . . . . . . . .

-|-----------------|--------------------------|| 
-|-----------------|-------------------------o|| 
-|-----------------|--------------------------|| 
-|-----------------|----7--6-----5--4---------|| 
-|---5-4---3-------|-5--5--4--6--3--2--5--6--o|| 
-|-3-----5---5-4-5-|-3--------4--------3--4---|| 
   . . . . . . . .   .  .  .  .  .  .  .  .

[Outro C]     [Riff 7 (x3)] 
|-------------||------------------|--------------------------------|- 
|-------------||o-----------------|--------------------------------|- 
|-------------||------------------|--------------------------------|- 
|-------------||------------------|--------------------------------|- 
|-5-4-5/6-----||o-5-4-5/6-5-4-5\4-|-5-4-5/6--6-5-4-5-4-5/6-5-4-5\4-|- 
|-3-2-3/4-----||--3-2-3/4-3-2-3\2-|-3-2-3/4--4-3-2-3-2-3/4-3-2-3\2-|- 
| . .         |   . .     . .     | . .            . .     . .     | 
|-------------||------------------|--------------------------------|- 
|-------------||o-----------------|--------------------------------|- 
|-------------||------------------|--------------------------------|- 
|-------------||------------------|--------------------------------|- 
|-------------||o-5-4-5/6-5-4-5\4-|-5-4-5/6--6-5-4-5-4-5/6-5-4-5\4-|- 
|-------------||--3-2-3/4-3-2-3\2-|-3-2-3/4--4-3-2-3-2-3/4-3-2-3\2-|- 
                  . .     . .       . .            . .     . .

-|---------------------|| 
-|--------------------o|| 
-|---------------------|| 
-|---------------------|| 
-|-5-4-5/6-5h/6-5-4-3-o|| 
-|-3-2-3/4-3h/4-3-2-1--|| 
 | . .                  |            
-|---------------------|| 
-|--------------------o|| 
-|---------------------|| 
-|---------------------|| 
-|-5-4-5/6-5h/6-5-4-3-o|| 
-|-3-2-3/4-3h/4-3-2-1--|| 
   . .

[Outro D] 
|------------------------------|------------------------------|- 
|------------------------------|------------------------------|- 
|------------------------------|------------------------------|- 
|------------------------------|----------------------------4-|- 
|-2------4/5---2---2-----4/5-3-|-2------4/5---2---2-----4/5-2-|- 
|-0--0-0-2/3-0-0-0-0-0-0-2/3-1-|-0--0-0-2/3-0-0-0-0-0-0-2/3---|- 
|    . .     .   .   . .       |    . .     .   .   . .       | 
|------------------------------|------------------------------|- 
|------------------------------|------------------------------|- 
|------------------------------|------------------------------|- 
|------------------------------|------------------------------|- 
|------------------------------|------------------------------|- 
|------------------------------|------------------------------|-

-|------------------------------|-----------------------------| 
-|------------------------------|-----------------------------| 
-|------------------------------|-----------------------------| 
-|------------------------------|-----------------------------| 
-|-2------4/5---2---2-----4/5-3-|-2------4/5---2---2-----3----| 
-|-0--0-0-2/3-0-0-0-0-0-0-2/3-1-|-0--0-0-2/3-0-0-0-0-0-0-1----| 
 |    . .     .   .   . .       |    . .     .   .   . . .    | 
-|------------------------------|-----------------------------| 
-|------------------------------|-----------------------------| 
-|------------------------------|-----------------------------| 
-|------------------------------|-----------------------------| 
-|------------------------------|-------------------------3---| 
-|-0"..-000-0-0-000-0-0-0-0-0-0-|-000-0-0-000-0-0-000-0-0-1---| 
        ... . . ... . . . . . .   ... . . ... . . ... . . .

[Riff 8 (x2)] 
||--------------------------|-------------------------|- 
||o-------------------------|-------------------------|- 
||--------------------------|-------------------------|- 
||--------------------------|-------------------------|- 
||o-----------------5---6---|-----------------5---6---|- 
||--000-0-0-000-0-0-3-0-4-0-|-000-0-0-000-0-0-3-0-4-0-|- 
    ... . . ... . .   .   .   ... . . ... . .   .   .

-|-------------------------|---------------------------------|| 
-|-------------------------|--------------------------------o|| 
-|-------------------------|---------------------------------|| 
-|-------------------------|-----------------5\4-------------|| 
-|-----------------5---6---|-----------------3\2---4-5---4--o|| 
-|-000-0-0-000-0-0-3-0-4-0-|-000-0-0-000-0-0-----0-2-3-0-2---|| 
   ... . . ... . .   .   .   ... . . ... . .     . . . .

[Riff 9 (x2)] 
||--------------------------------|--------------------------------|| 
||o-------------------------------|-------------------------------o|| 
||--------------------------------|--------------------------------|| 
||--------------------------------|----------------------------4---|| 
||o-2------4/5---2---2-----4/5-3--|-2------4/5---2---2-----4/5-2--o|| 
||--0--0-0-2/3-0-0-0-0-0-0-2/3-1--|-0--0-0-2/3-0-0-0-0-0-0-2/3-----|| 
       . .     .   .   . .             . .     .   .   . .

[RIFF 8]

END OF SONG
 
 
Vomit Remnants - 00 Buck Shot :: indexed at Ultimate Guitar.
00 Buck Shot tabs @ 911Tabs

Quick tip, so you can enjoy 00 Buck Shot even more:

After the registration (which takes just 10 seconds, remember?) you will be able to use your profile - your very own piece of YourChords.com.

Show us your talent, perform 00 Buck Shot!

Here you can post a video or audio performance. Tell me more ...
Where can we find your performance? Tell me more ...
Your comment:
Please, log in to post your performance.