Artists by letter: A B C D E F G H I J K L M N O P Q R S T U V W X Y Z 0-9

 
Tortugas Y Sumos
Marthin usa un capo que va en el segundo fret, yo creo. Pero se
suena normal sin el capo cuando la tocas con el disco.


Intro: Cmajor Dminor Fmajor


C     Dm      F             

Corto filo de papel    
Su contenido era un poco triste como
yo melodramatico que soy 
yo un tipo eratico


F   G            Em          Am

Yo aqui me quedare porque se siente bien
Aqui es donde los hombres pagan para ver
Por un minuto me escape a buscar lo que ya tengo 
por que siente bien
por que se siente bien
por que se siente bien


(0:12, 0:21)
e---------------
B-----8---8-----
G--7-7--7-------
D---------------
A---------------
E---------------


(1:09)
e-----------------------------------------------------------
B----5--5-5-5-5-5-5-5-6-5-----5-5-5-5-6-5----3--3-3---------
G----------------------------------------------------5-4----
D-----------------------------------------------------------
A-----------------------------------------------------------
E-----------------------------------------------------------

 
 
Volumen Cero - Tortugas Y Sumos :: indexed at Ultimate Guitar.
Tortugas Y Sumos tabs @ 911Tabs
People who played Volumen Cero - Tortugas Y Sumos also played these songs by Volumen Cero:
Autos Tab, Autos Chords, Hollywood Tab, A Donde Quiera Que Voy Chords, Autos Chords, Hollywood Chords

Quick tip, so you can enjoy Tortugas Y Sumos even more:

After the registration (which takes just 10 seconds, remember?) you will be able to use your profile - your very own piece of YourChords.com.

Show us your talent, perform Tortugas Y Sumos!

Here you can post a video or audio performance. Tell me more ...
Where can we find your performance? Tell me more ...
Your comment:
Please, log in to post your performance.