Artists by letter: A B C D E F G H I J K L M N O P Q R S T U V W X Y Z 0-9

 
Bailarinas
Ke Rollo, ahi les va esta rola ke sta wenona

Intro
|-------------------------------------------|
|-------------------------------------------|
|-------------------------------------------|  x 2
|-------------------------------------------|
|-7-9-9-9-9-9-7-9---11-11-11-11-11-11-11-11-|
|-7-7-7-7-7-7-7-7---9--9--9--9--9--9--10--9-|

B5                     C#5
Quiero una aspirina, para quitarme todo el peso
B5                        C#5
que estoy llevando ... a casa.

(las estrofas son asi, puro B5 y C#5)

Coro:

A     C#m        A               C#m      A
Bailarinas de papel, las que les gusta la noche

(Y todo el coro tambien con esas 2: A , C#m)

Durante el coro hace un requinteo asi varias veces,
lo pondre una vez nomas, porke se repite:

|-5-----|
|--5----|
|---7-6-|
|-------|
|-------|
|-------|

Despues hacen un requinteo mas largo con algun efecto especial
sobre la guitarra, pero va mas o menos asi:

|-5-4---5-4---5-4---5-4-----------------------
|-----7-----2-----7------2-0-2----------------
|----------------------------------2-4-6-4-7--
|------------------------------2-4------------
|---------------------------------------------
|---------------------------------------------

(continuacion del requinteo de arriba...)

|-9-7------9-7------9-7------9-7----10-10-9-7----10-9-7----|
|-----10-7-----10-7-----10-7-----10-----------10--------7--|
|----------------------------------------------------------|
|----------------------------------------------------------|
|----------------------------------------------------------|
|----------------------------------------------------------|


Bailarinas de papel.... etc
Gracias, espero les guste, correo si algo no les parece.
 
 
Volumen Cero - Bailarinas :: indexed at Ultimate Guitar.
Bailarinas tabs @ 911Tabs
People who played Volumen Cero - Bailarinas also played these songs by Volumen Cero:
Autos Tab, Autos Chords, Hollywood Tab, A Donde Quiera Que Voy Chords, Autos Chords, Hollywood Chords

Quick tip, so you can enjoy Bailarinas even more:

After the registration (which takes just 10 seconds, remember?) you will be able to use your profile - your very own piece of YourChords.com.

Show us your talent, perform Bailarinas!

Here you can post a video or audio performance. Tell me more ...
Where can we find your performance? Tell me more ...
Your comment:
Please, log in to post your performance.