Artists by letter: A B C D E F G H I J K L M N O P Q R S T U V W X Y Z 0-9

 
Autos
Esta es un de mis rolas favoritas de volumen cero y va dedicada a la chava que mas quiero en este mundo JULIA.

INTRO
   B    A    F#    A     B     A     F#    A
e------------------------------------------------
b------------------------------------------------
g------------------------------------------------ X 4
D--99-77777-44444-7-77--999-9-77777-44444-7-77---
A--99-77777-44444-7-77--999-9-77777-44444-7-77---
E--77-55555-22222-5-55--777-7-55555-22222-5-55---


  PM...B..................Eb.o.D# ................C#m.............
e----------------------------------------------------------------
b----------------------------------------------------------------
g--4444444444444444----8888888888888888----6666666666666666------
D--4444444444444444----8888888888888888----6666666666666666------
A--2222222222222222----6666666666666666----4444444444444444------
E----------------------------------------------------------------


e-------------------------------------------
b-------------------------------------------
g-------------------------------------------
D---4-2-2-1-1-------------------------------
A-------------4-4---------------------------
E-------------------------------------------


En esta parte puede ser como con ritmo de ska
        B          Eb o D#         C#m
    DU DU DU DU  DU DU DU DU  DU DU DU DU
e---11-11-11-11--66-66-66-66--44-44-44-44------------------------
b---44-44-44-44--77-77-77-77--55-55-55-55------------------------
g---44-44-44-44--88-88-88-88--66-66-66-66------------------------
D---44-44-44-44--88-88-88-88--66-66-66-66------------------------
A----------------------------------------------------------------
E----------------------------------------------------------------

O quitando y poniendo PM

PM ..// ..// ..// ..//  ..// ..// ..// ..// ..// ..// ..// ..//
e-----------------------------------------------------------------
b-----------------------------------------------------------------
g--4444-4444-4444-4444--8888-8888-8888-8888-6666-6666-6666-6666---
D--4444-4444-4444-4444--8888-8888-8888-8888-6666-6666-6666-6666---
A--2222-2222-2222-2222--6666-6666-6666-6666-4444-4444-4444-4444---
E-----------------------------------------------------------------

e-------------------------------------------
b-------------------------------------------
g-------------------------------------------
D---4-2-2-1-1-------------------------------
A-------------4-4---------------------------
E-------------------------------------------

    F#.........
    DUD   DDDD
e---222---2222-------------------------------
b---222---2222-------------------------------
g---333---3333-------------------------------
D---444---4444-------------------------------
A---444---4444-------------------------------
E---222---2222-------------------------------


CORO

          B              Eb o D#            C#m
e------------------------------------------------------
b------------------------------------------------------
g---4444444444444444-8888888888888888-6666666666666666-
D---4444444444444444-8888888888888888-6666666666666666-
A---2222222222222222-6666666666666666-4444444444444444-
E------------------------------------------------------


e-------------------------------------------
b-------------------------------------------
g-------------------------------------------
D---4-2-2-1-1-------------------------------
A-------------4-4---------------------------
E-------------------------------------------


          B              Eb o D#            C#m
e------------------------------------------------------
b------------------------------------------------------
g---4444444444444444-8888888888888888-6666666666666666-
D---4444444444444444-8888888888888888-6666666666666666-
A---2222222222222222-6666666666666666-4444444444444444-
E------------------------------------------------------


e-------------------------------------------
b-------------------------------------------
g-------------------------------------------
D---4-2-2-1-1-------------------------------
A-------------4-4---------------------------
E-------------------------------------------


 B    A    F#    A     B     A     F#    A
e------------------------------------------------
b------------------------------------------------
g------------------------------------------------
D--99-77777-44444-7-77--999-9-77777-44444-7-77--- X 2
A--99-77777-44444-7-77--999-9-77777-44444-7-77---
E--77-55555-22222-5-55--777-7-55555-22222-5-55---


        B          Eb o D#         C#m
    DU DU DU DU  DU DU DU DU  DU DU DU DU
e---11-11-11-11--66-66-66-66--44-44-44-44------------------------
b---44-44-44-44--77-77-77-77--55-55-55-55------------------------
g---44-44-44-44--88-88-88-88--66-66-66-66------------------------
D---44-44-44-44--88-88-88-88--66-66-66-66------------------------
A----------------------------------------------------------------
E----------------------------------------------------------------


PM ..// ..// ..// ..//  ..// ..// ..// ..// ..// ..// ..// ..//
e-----------------------------------------------------------------
b-----------------------------------------------------------------
g--4444-4444-4444-4444--8888-8888-8888-8888-6666-6666-6666-6666---
D--4444-4444-4444-4444--8888-8888-8888-8888-6666-6666-6666-6666---
A--2222-2222-2222-2222--6666-6666-6666-6666-4444-4444-4444-4444---
E-----------------------------------------------------------------

e-------------------------------------------
b-------------------------------------------
g-------------------------------------------
D---4-2-2-1-1-------------------------------
A-------------4-4---------------------------
E-------------------------------------------


        B          Eb o D#         C#m
    DU DU DU DU  DU DU DU DU  DU DU DU DU
e---11-11-11-11--66-66-66-66--44-44-44-44------------------------
b---44-44-44-44--77-77-77-77--55-55-55-55------------------------
g---44-44-44-44--88-88-88-88--66-66-66-66------------------------
D---44-44-44-44--88-88-88-88--66-66-66-66------------------------
A----------------------------------------------------------------
E----------------------------------------------------------------

O PM

PM ..// ..// ..// ..//  ..// ..// ..// ..// ..// ..// ..// ..//
e-----------------------------------------------------------------
b-----------------------------------------------------------------
g--4444-4444-4444-4444--8888-8888-8888-8888-6666-6666-6666-6666---
D--4444-4444-4444-4444--8888-8888-8888-8888-6666-6666-6666-6666---
A--2222-2222-2222-2222--6666-6666-6666-6666-4444-4444-4444-4444---
E-----------------------------------------------------------------

e-------------------------------------------
b-------------------------------------------
g-------------------------------------------
D---4-2-2-1-1-------------------------------
A-------------4-4---------------------------
E-------------------------------------------


    F#.............
    DUD   DUD DUD
e---222---222-222-------------------------------
b---222---222-222-------------------------------
g---333---333-333-------------------------------
D---444---444-444-------------------------------
A---444---444-444-------------------------------
E---222---222-222-------------------------------


CORO

          B              Eb o D#            C#m
e------------------------------------------------------
b------------------------------------------------------
g---4444444444444444-8888888888888888-6666666666666666-
D---4444444444444444-8888888888888888-6666666666666666-
A---2222222222222222-6666666666666666-4444444444444444-
E------------------------------------------------------


e-------------------------------------------
b-------------------------------------------
g-------------------------------------------
D---4-2-2-1-1-------------------------------
A-------------4-4---------------------------
E-------------------------------------------


          B              Eb o D#            C#m
e------------------------------------------------------
b------------------------------------------------------
g---4444444444444444-8888888888888888-6666666666666666-
D---4444444444444444-8888888888888888-6666666666666666-
A---2222222222222222-6666666666666666-4444444444444444-
E------------------------------------------------------


e-------------------------------------------
b-------------------------------------------
g-------------------------------------------
D---4-2-2-1-1-------------------------------
A-------------4-4---------------------------
E-------------------------------------------


e--------2-------6-------4--------------------------2--
b-------4-------7-------5--5-5---5---5-5---5-------4---
g------4-------8-------6-------6---6-----6---6----4----
D-----4-------8-------6--------------------------4-----
A----2-------6-------4--------------------------2------
E---2-------6-------4--------------------------2-------


e--------2-------6-------4----------------------------
b-------4-------7-------5--5-5---5---5-5---5----------
g------4-------8-------6-------6---6-----6---6--------
D-----4-------8-------6-------------------------------
A----2-------6-------4--------------------------------
E---2-------6-------4---------------------------------


    F#............
    DUD   DUD DUD
e---222---222-222-------------------------------
b---222---222-222-------------------------------
g---333---333-333-------------------------------
D---444---444-444-------------------------------
A---444---444-444-------------------------------
E---222---222-222-------------------------------


CORO

          B              Eb o D#            C#m
e------------------------------------------------------
b------------------------------------------------------
g---4444444444444444-8888888888888888-6666666666666666-
D---4444444444444444-8888888888888888-6666666666666666-
A---2222222222222222-6666666666666666-4444444444444444-
E------------------------------------------------------


e-------------------------------------------
b-------------------------------------------
g-------------------------------------------
D---4-2-2-1-1-------------------------------
A-------------4-4---------------------------
E-------------------------------------------


          B              Eb o D#            C#m
e------------------------------------------------------
b------------------------------------------------------
g---4444444444444444-8888888888888888-6666666666666666-
D---4444444444444444-8888888888888888-6666666666666666-
A---2222222222222222-6666666666666666-4444444444444444-
E------------------------------------------------------


e-------------------------------------------
b-------------------------------------------
g-------------------------------------------
D---4-2-2-1-1---1/4-4-2-2-1-1---1-----------
A-------------4---------------4-------------
E-------------------------------------------


 \----------------------------/
 \ Esta es la parte del baajo /
e---------------------------------------------------------------------------------------------
b---------------------------------------------------------------------------------------------
g-----------------------------------------------4444-------------------4444-------------------
D-----------------------------------------------4444---7-44-4-4-4/7/4--4444---7-44-4-4-4/7/4--
A---0h2-2-2--------2------0h2-2-2-------2-------2222---7-44-4-4-4/7/4--2222---7-44-4-4-4/7/4--
E------------5-2-5---5/2----------5-2-5----0-2---------5-22-2-2-2/5/2---------5-22-2-2-2/5/2--

e----------------------------------------------------------
b----------------------------------------------------------
g--4444------------------4444-----4------------------------
D--4444--7-44-44-4/7-7---4444--7--4------------------------
A--2222--7-44-44-4/7-7---2222--7--2------------------------
E--------5-22-22-2/5-5---------5---------------------------


NOTA:
 EADgbe                        EADgbe
B 244    TAMBIEN PUEDE SER ASI 799

Y para
        EADgbe                   EADgbe
Eb o R#  688   TAMBIEN PUEDE SER   134


Cualquier duda o sugerencia escribanme a [email protected]
 
 
Volumen Cero - Autos :: indexed at Ultimate Guitar.
Autos tabs @ 911Tabs
People who played Volumen Cero - Autos also played these songs by Volumen Cero:
Autos Tab, Autos Chords, Hollywood Tab, A Donde Quiera Que Voy Chords, Autos Chords, Hollywood Chords

Quick tip, so you can enjoy Autos even more:

You might want to transpose the song if it is too high or too low for you to sing. Just click the desired option while playing a song and all the chords will automatically be transponded into a new key.

Show us your talent, perform Autos!

Here you can post a video or audio performance. Tell me more ...
Where can we find your performance? Tell me more ...
Your comment:
Please, log in to post your performance.