Artists by letter: A B C D E F G H I J K L M N O P Q R S T U V W X Y Z 0-9

 
Sabes Que Mientes
Asi va casi toda la rola es muy facil
                A                             F                 E
|---------------------------------|-----1--1--1--1--1----0--0--0--0--0----|
|----2---3----2/3/2-----3--2------|------1--1--1--1-------0--0--0--0------|
|---------------------------------|-------2--2--2--2-------1--1--1--1-----|
|---------------------------------|---------------------------------------|
|--0---0---0---------0------------|---------------------------------------|
|---------------------------------|--1-----------------0------------------|


A  A                  F
   Viviendo como una enfermedad
E             A
   no puedes parar
   A                  F
   Parece que nnca lo dejaras
E             A
   poder descansar
   A                   F
   Cansado de tu misma realidad
E             A
   no puedes gritar
A#          A        G#       G
Quieres vencer sin saber el final
A#          A        G#       G
Quieres vencer sin saber el final


               A                                F                  E
|-----------------------------|-----1--1--1--1--1--|---0--0--0--0--0------|
|----2---3----2/3/2-----3--2--|------1--1--1--1----|----0--0--0--0--------|
|-----------------------------|-------2--2--2--2---|-----1--1--1--1-------|
|-----------------------------|--------------------|----------------------|
|--0---0---0---------0--------|--------------------|----------------------|
|-----------------------------|--1-----------------|-0--------------------|


A  A                    F
   Palabra tras palabra y sin final
E             A
   no paras de hablar
   A                    F
   Te robas la sonrisa que aun no hay
E             A
   que no existira
   A                 F
   Y queeeeeeeeeeeee nooooooooooooo
E          A
   existira jamas
G                 A
  Serrar tus ojos quieren ya
G                 A
  y no dejarnos ver
G                 A
  viviendo como enfermedad
G                 A
  asi nos quieren ver


   E     C     G       A
|------------------------------|
|------------------------------|
|------------------------------| X2
|-------5-5--------------------|
|-2-2---3-3--5-5-5--7-7-7-7----|
|-0-0--------3-3-3--5-5-5-5----|


E      C        G       A           E      C        G        A
  Por que no intentas dejar de engañar (dejar de engañar, dejar de engañar)
E      C        G       A           E      C        G        A
  Por que no intentas decir la verdad (decir la verdad, decir la verdad)
E      C        G       A           E      C        G        A
  Por que no intentas dejar de engañar (dejar de engañar, dejar de engañar)
E      C        G       A           E      C        G        A
  Por que no intentas decir la verdaaaaaaaaaaaaaaaaaaaaaaaaaaaaaaaaaaad


Este es el requinto, se necesita mucha velocidad para hacerlo

|-------------------------------|
|--2-2-3-2--h4p3p2p1-h3p2p1p0---|
|-------------------------------|X8
|-------------------------------|
|-------------------------------|
|-------------------------------|


Este es un pequeño puente que hace antes del ultimo coro

|--------------------------------|
|--------------------------------|
|--------------------------------|
|--------------------------------|
|--5--7--5--7--5--7--5--7--5--7--|
|--3--5--3--5--3--5--3--5--3--5--|


E      C        G       A           E      C        G        A
  Por que no intentas dejar de engañar (dejar de engañar, dejar de engañar)
E      C        G       A           E      C        G        A
  Por que no intentas decir la verdad (decir la verdad, decir la verdad)
E      C        G       A           E      C        G        A
  Por que no intentas dejar de engañar (dejar de engañar, dejar de engañar)
E      C        G       A           E      C        G        A
  Por que no intentas decir la verdaaaaaaaaaaaaaaaaaaaaaaaaaaaaaaaaaaad
E      C        G       A
                       Sabes que mientes.


Eso es todo carnales, ¿muy facil no?
pronto subire mas canciones de voltio y unas mas de guillotina
que traigo ya desde hace rato, por lo pronto aqui esta mi mail
para cualquier duda o comentario.
 
 
Voltio - Sabes Que Mientes :: indexed at Ultimate Guitar.
Sabes Que Mientes tabs @ 911Tabs
People who played Voltio - Sabes Que Mientes also played these songs by Voltio:
Caminar Tab, Sabes Que Mientes Tab, Caminar

Quick tip, so you can enjoy Sabes Que Mientes even more:

Try out the AutoScroller option ... It scrolls the page for you, so you can totally focus on nailing that solo. You can choose among different speeds using your mouse or your keyboard (keys 0, 1, 2 and 3).

Show us your talent, perform Sabes Que Mientes!

Here you can post a video or audio performance. Tell me more ...
Where can we find your performance? Tell me more ...
Your comment:
Please, log in to post your performance.