Artists by letter: A B C D E F G H I J K L M N O P Q R S T U V W X Y Z 0-9

 
Caminar
E-------------------------------I----------------------------------
B-------------------------------I--------------------------------
G-------------------------------I--------------------------------
D-------------------------------I-------------------------------
A---------5-------------5-------I---------5-------------5-------
E-5-5-4-5---5-4-5-5-4-5---5-44--I-5-5-4-5---5-4-5-5-4-5---5-4--

E----------------------------------------I
B----------------------------------------I
G----------------------------------------I
D----------------------------------------I
A---------5-------------555555-4-4-5-4---I
E-5-5-4-5---5-4-5-5-4-5------------------I

AQUI EMPIEZA CON DISTORCION
E-------------------------------I----------------------------------
B-------------------------------I--------------------------------
G-------------------------------I--------------------------------
D-------------------------------I-------------------------------
A---------5-------------5-------I---------5-------------5-------
E-5-5-4-5---5-4-5-5-4-5---5-44--I-5-5-4-5---5-4-5-5-4-5---5-4--

E----------------------------------------I
B----------------------------------------I
G----------------------------------------I
D----------------------------------------I
A---------5-------------555555-4-4-5-4---I
E-5-5-4-5---5-4-5-5-4-5------------------I

E------------------------------I-----------------------------
B------------------------------I-----------------------------
G---------7-------------7------I---------7-------------7------
D-7-7-6-7---7-6-7-7-6-7---7-66-I-7-7-6-7---7-6-7-7-6-7---7-66-
A------------------------------I-----------------------------
E------------------------------I-----------------------------
                                       AQUI EMPIEZA ACANTAR
E-------------------------------------I-------
B-------------------------------------I--9---9 MUCHAS
G---------7-------------77777-6-6-7-6-I7---77- VECES EL
D-7-7-6-7---7-6-7-7-6-7---------------I------- 7,9.
A-------------------------------------I-------
E-------------------------------------I-------

E-----------------------------------
B-----------------------------------
G-----------------------------------
D-7--6--9---9---9---999999----------
A-5--4--777777777777777777----------
E-----------------------------------

VUELVES, VUELVES A CAMINAR...ES ESTA PARTE

CON PALM-MUTING(se pone la mano ahogando las cuerdas a lado del hueso
inferior sin presion y se rasgea) unicamente el A5 Y EL F#5
E------------------------
B------------------------ SE TOCAN VARIAS VECES LOS ACORDES
G------------------------ SI ESCUCHAN LA CANCION SABRAN EL TIEMPO
D------------------------ QUE DURA CADA RASGEO Y EL CAMBIO DE ACORDE
A-7----4---12---7--------
E-5----2---10---5---(X2)-
  A5  F#5  D    A

Y DE NUEVO EL INTRO
E-------------------------------I----------------------------------
B-------------------------------I--------------------------------
G-------------------------------I--------------------------------
D-------------------------------I-------------------------------
A---------5-------------5-------I---------5-------------5-------
E-5-5-4-5---5-4-5-5-4-5---5-44--I-5-5-4-5---5-4-5-5-4-5---5-4--

E----------------------------------------I
B----------------------------------------I
G----------------------------------------I
D----------------------------------------I
A---------5-------------555555-4-4-5-4---I
E-5-5-4-5---5-4-5-5-4-5------------------I

E------------------------------I-----------------------------
B------------------------------I-----------------------------
G---------7-------------7------I---------7-------------7------
D-7-7-6-7---7-6-7-7-6-7---7-66-I-7-7-6-7---7-6-7-7-6-7---7-66-
A------------------------------I-----------------------------
E------------------------------I-----------------------------

E-------------------------------------I-------
B-------------------------------------I--9---9
G---------7-------------77777-6-6-7-6-I7---77-
D-7-7-6-7---7-6-7-7-6-7---------------I-------
A-------------------------------------I-------
E-------------------------------------I-------

Y SIGUE REPITIENDOSE
E-----------------------------------
B-----------------------------------
G-----------------------------------
D-7--6--9---9---9---999999----------
A-5--4--777777777777777777----------
E-----------------------------------

E------------------------
B------------------------
G------------------------
D------------------------
A-7----4---12---7--------
E-5----2---10---5---(X2)-
  A5  F#5  D    A

VUELVE A DESCUBRIR... O ALGO ASI DICE SIGUE LO SIGUIENTE
E---------------
B---------------
G---------------
D---7---9-------(X4)
A-4-5-7-7-------
E-2---5---------

SE REPITE COMO 3 VECES
E------------------------
B------------------------
G------------------------
D------------------------
A-7----4---12---7--------
E-5----2---10---5--------
  A5  F#5  D    A
Y SE REPITE EL INTRO PARA TERMINAR
E-------------------------------I----------------------------------
B-------------------------------I--------------------------------
G-------------------------------I--------------------------------
D-------------------------------I-------------------------------
A---------5-------------5-------I---------5-------------5-------
E-5-5-4-5---5-4-5-5-4-5---5-44--I-5-5-4-5---5-4-5-5-4-5---5-4--

E----------------------------------------I
B----------------------------------------I
G----------------------------------------I
D----------------------------------------I
A---------5-------------555555-4-4-5-4---I
E-5-5-4-5---5-4-5-5-4-5------------------I

E------------------------------I-----------------------------
B------------------------------I-----------------------------
G---------7-------------7------I---------7-------------7------
D-7-7-6-7---7-6-7-7-6-7---7-66-I-7-7-6-7---7-6-7-7-6-7---7-66-
A------------------------------I-----------------------------
E------------------------------I-----------------------------

E-------------------------------------I
B-------------------------------------I
G---------7-------------77777-6-6-7-6-I
D-7-7-6-7---7-6-7-7-6-7---------------I
A-------------------------------------I
E-------------------------------------I

E------------------------------I-----------------------------
B------------------------------I-----------------------------
G---------7-------------7------I---------7-------------7------
D-7-7-6-7---7-6-7-7-6-7---7-66-I-7-7-6-7---7-6-7-7-6-7---7-66-
A------------------------------I-----------------------------
E------------------------------I-----------------------------

E-------------------------------------I----
B-------------------------------------I----
G---------7-------------77777-6-6-7-6-I----
D-7-7-6-7---7-6-7-7-6-7---------------I----
A-------------------------------------I-7--
E-------------------------------------I-5--

 
 
Voltio - Caminar :: indexed at Ultimate Guitar.
Caminar tabs @ 911Tabs
People who played Voltio - Caminar also played these songs by Voltio:
Caminar Tab, Sabes Que Mientes Tab, Sabes Que Mientes

Quick tip, so you can enjoy Caminar even more:

Try out the AutoScroller option ... It scrolls the page for you, so you can totally focus on nailing that solo. You can choose among different speeds using your mouse or your keyboard (keys 0, 1, 2 and 3).

Show us your talent, perform Caminar!

Here you can post a video or audio performance. Tell me more ...
Where can we find your performance? Tell me more ...
Your comment:
Please, log in to post your performance.