Artists by letter: A B C D E F G H I J K L M N O P Q R S T U V W X Y Z 0-9

 
Get Up
Here's a tab of get up by volt enjoy !
Intro:

      E                G      A
E: --------------------3------5---
B: --------------------3------5---
G: ----1---------------4------6---
D: ----2--7-5----------5------7---      X 2
A: ----2-----7-5-------5------7---
E: --0-0--------5--3-3-3--5-5-5---

Couplet:

      E             D    G            A
E: --0-0--X-X-X-X--5-5--3-3--X-X-X-X-5-5--
B: --0-0--X-X-X-X--7-7--3-3--X-X-X-X-5-5--
G: --1-1--X-X-X-X--7-7--4-4--X-X-X-X-6-6--
D: --2-2--X-X-X-X--7-7--5-5--X-X-X-X-7-7--
A: --2-2--X-X-X-X--5-5--5-5--X-X-X-X-7-7--
E: --0-0--X-X-X-X--X-X--3-3--X-X-X-X-5-5--

Refrain:

      E      D      G      A
E: --0-0--5-5-5-5--3-3--5-5-5-5-----------------------
B: --0-0--7-7-7-7--3-3--5-5-5-5-----------------------
G: --1-1--7-7-7-7--4-4--6-6-6-6-----------------------
D: --2-2--7-7-7-7--5-5--7-7-7-7-----------------------
A: --2-2--5-5-5-5--5-5--7-7-7-7-----------------------
E: --0-0--X-X-X-X--3-3--5
 
 
Volt - Get Up :: indexed at Ultimate Guitar.
Get Up tabs @ 911Tabs
People who played Volt - Get Up also played these songs by Volt:
Get Up Tab

Quick tip, so you can enjoy Get Up even more:

After the registration (which takes just 10 seconds, remember?) you will be able to use your profile - your very own piece of YourChords.com.

Show us your talent, perform Get Up!

Here you can post a video or audio performance. Tell me more ...
Where can we find your performance? Tell me more ...
Your comment:
Please, log in to post your performance.