Artists by letter: A B C D E F G H I J K L M N O P Q R S T U V W X Y Z 0-9

 
Tiderays
----------------------------------------------------------------
                    TIDERAYS - Volcano Choir
----------------------------------------------------------------
Tabbed by: Dan Mason

This is my first ever tab. Used to just finding songs on here and learning to play
thanks to others. HAD to try and learn this, such a great tune, think I managed to
get it about right. Enjoy.

Tuning: E B E F# B E

Intro:

E |-------------------7------0---0------------------------------|
B |--------0------7h9---0-0-------------------------------------|
F#|----5/7---7/9---------------9"-9-----------------------------|
E |-------------------0-------------7---------------------------|
B |--0----------------------------------------------------------|
E |-------------------------------------------------------------|

E |-------------------7------0---0------------------------------|
B |--------0------7h9---0-0-------------------------------------|
F#|----5/7---7/9---------------9"-9/7---------------------------|
E |-------------------0-----------------------------------------|
B |--0----------------------------------------------------------|
E |-------------------------------------------------------------|

E |-------------------7------0---0------------------------------|
B |--------0------7h9---0-0-------------------------------------|
F#|---55/7---7/9---------------9"-9-7---------------------------|
E |-------------------0-----------------------------------------|
B |--0----------------------------------------------------------|
E |-------------------------------------------------------------|

E |-------------------7------0---0------------------------------|
B |--------0------7h9---0-0-------------------------------------|
F#|---55/7---7/9---------------9"-9-7---------------------------|
E |-------------------0-----------------------------------------|
B |--0----------------------------------------------------------|
E |-------------------------------------------------------------|

The last bit of the intro is odd to decipher but live the guy just messes about with it 
a little something like this:

E |-------------------------------------------------------------|
B |-------------------------------------------------------------|
F#|---55/7---7/9--7/5"-5h0------"-------------------------------|
E |-------------------------------------------------------------|
B |--0-----0----0-----0-----------------------------------------|
E |-------------------------------------------------------------|

The tempo picks and you just play this over and over. . . .

E |-------------------7------0---0------------------------------|
B |--------0------7h9---0-0-------------------------------------|
F#|----5/7---7/9---------------9"-9-5---------------------------|
E |-------------------0-----------------------------------------|
B |--0----------------------------------------------------------|
E |-------------------------------------------------------------|

E |-------------------7------0---0------------------------------|
B |--------0------7h9---0-0-------------------------------------|
F#|----5/7---7/9---------------9"-9/7---------------------------|
E |-------------------0-----------------------------------------|
B |--0----------------------------------------------------------|
E |-------------------------------------------------------------|

. . . until the break (this is very far from what’s actually played but it does the job 
. . . i think.)

E |-------------------------------------------------------------|
B |-------------------------------------------------------------|
F#|-------------------------------------------------------------|
E |--99-99-99-99-9-9--22-22-22-22"2-2--44-44-44-44-4-4---2--0---|
B |--99-99-99-99-9-9--22-22-22-22-2-2--44-44-44-44-4-4---2--0---|
E |--99-99-99-99-9-9--22-22-22-22-2-2--44-44-44-44-4-4---2--0---|x2

Enjoy :)
 
 
Volcano Choir - Tiderays :: indexed at Ultimate Guitar.
Tiderays tabs @ 911Tabs
People who played Volcano Choir - Tiderays also played these songs by Volcano Choir:
Comrade Chords, Tiderays Tab, Husks And Shells Tab, Byegone Tab, Tiderays Tab, Byegone Tab

Quick tip, so you can enjoy Tiderays even more:

After the registration (which takes just 10 seconds, remember?) you will be able to use your profile - your very own piece of YourChords.com.

Show us your talent, perform Tiderays!

Here you can post a video or audio performance. Tell me more ...
Where can we find your performance? Tell me more ...
Your comment:
Please, log in to post your performance.