Artists by letter: A B C D E F G H I J K L M N O P Q R S T U V W X Y Z 0-9

 
The Hangmans Body Count
The Hangman's Body Count

Tuning: D G C F A D

Gtr1 (acoustic)                             Intro/Bridge Gtr2
|-------|----------------------------------------------------|
|-------|----------------------------------------------------|
|-2-222-|---10-7-9~----10-7-9-6~----10-12-12~----10-7-9-6----|
|-2-222-|-7----------7------------7------------7----------5~-|
|-0-000-|----------------------------------------------------|
|-------|----------------------------------------------------|

Gtr3
|----------------------------------------------------------------|
|----------------------------------------------------------------|
|---10-7-9~----10-7-9-6~----10-12-12-10-9-10-9-7~----10-7-9-6----|
|-7----------7------------7------------------------7----------5~-|
|----------------------------------------------------------------|
|----------------------------------------------------------------|

Gtr1
|---------------------------------------------------------|----|
|---------------------------------------------------------|----|
|---------------------------------------------------------|----|
|-7-7777-7-7777-7-7777-5-55-8-7-7777-7-7777-7-7777-5-5555-|-7~-|
|-0-0000-0-0000-0-0000-0-00-0-0-0000-0-0000-0-0000-0-0000-|-0~-|
|---------------------------------------------------------|----|

Gtr2 (with wah) 
|------------------------------------------------------------------------------|
|------------------------------------------------------------------------------|
|-/14~--/12~--/9~---------------/14~--/14~--/12~--/9~--------------------------|
|-------------------/12~--/10~-------------------------/12~--/10~--/7~-/5~-/7~-|
|------------------------------------------------------------------------------|
|------------------------------------------------------------------------------|

Pre-Verse
|-----------------------------------------------------------|
|-----------------------------------------------------------|
|-----------------------------5---------------------------5-|
|-7----7----7----7----7---5h7------7----7----7----7---5h7---|
|-0-00-0-00-0-00-0-00-0-0-------00-0-00-0-00-0-00-0-0-------|
|-----------------------------------------------------------|
PM  "-   "-   "-   "-   -       "-   "-   "-   "-   -

Gtr2
|-----------------------------------------------------|---------------------|
|-----------------------------------------------------|---------------------|
|-----------------------------5---5-7-7b-7b-5h7p5-----|---------------------|
|-7----7----7----7----7---5h7---7-----------------7-5-|----------------5----|
|-0-00-0-00-0-00-0-00-0-0-----------------------------|-7--7-7--7-7-7--3--5-|
|-----------------------------------------------------|-5--5-5--5-5-5-----3-|
PM  "-   "-   "-   "-   -

Verse
|-----------------------------------------------------------|
|-----------------------------------------------------------|
|-----------------------------5---------------------------5-|
|-7----7----7----7----7---5h7------7----7----7----7---5h7---|
|-0-00-0-00-0-00-0-00-0-0-------00-0-00-0-00-0-00-0-0-------|
|-----------------------------------------------------------|
PM  "-   "-   "-   "-   -       "-   "-   "-   "-   -

|----------------------------------------|
|----------------------------------------|
|--------------------------------------5-|
|-7----7----7----7----7---5h7-9~---5h7---|
|-0-00-0-00-0-00-0-00-0-0-----7~---------|
|----------------------------------------|
PM  "-   "-   "-   "-   -

Chorus
|--------------------------------------------------|---------|
|--------------------------------------------------|---------|
|--------------------------------------------------|---------|
|----------7-----7-----9h10----7-----7-----9h10----|-10~--9~-|
|-10~--9~--0-000-0-000------00-0-000-0-000------00-|--8~--7~-|
|--8~--7~------------------------------------------|---------|
PM           ---   ---      "-   ---   ---      --

Bridge Gtr1
|-----------------------|
|-----------------------|
|-----------------------|
|-222222222222222222222-|
|-000000000000000000000-|
|-----------------------|
PM---------------------

Pre-Solos/Backing Solos
|--------------------------------------------------------------|
|--------------------------------------------------------------|
|--------------------------------------------------------------|
|--------------------------------------------------------------|
|-333333333333333333333333----7---7---5h7--------7----7----5h7-|
|-111111111111111111111111-00---0---0-----000000---00---00-----|
PM------------------------ "-   -   -     ------   "-   "-

Solo 1
|-------------------------------------------------------------------|
|-----12---12---12-15-12~-12b-12h13p12-10---------------------------|
|-----------------------------------------12-10-9-10-12-10~-12-/14~-|
|-9-9----9----9-----------------------------------------------------|
|-------------------------------------------------------------------|
|-------------------------------------------------------------------|
PM- -    -    -

|----------------------------------------------------------------------|
|-17b18r17-17-17-15-15-12-15-15-14-14-12-17-17-15-15-12-15-15-14-14-12-|
|----------------------------------------------------------------------|
|----------------------------------------------------------------------|
|----------------------------------------------------------------------|
|----------------------------------------------------------------------|

|-22b~-22b-22b-22b-22~-|
|----------------------|
|----------------------|
|----------------------|
|----------------------|
|----------------------|

Dual-Solo (2 Guitars)
|----------------------------------------------------------------|
|----------------------------------------------------------------|
|----------------------------------------------------------------|
|------3-5-3~-3-------------------------------------3-5-3~-3-----|
|-7~-7-5-7-5~-5-2-2-3~-3~-3h5-5555-5h7-7p5-3h5-7~-7-5-7-5~-5-2-2-|
|-8~-8----------3-3-5~-5~-5h7-7777-7h8-8p7-5h7-8~-8----------3-3-|
PM                            ----

|----------------------------------------------------------|
|-------------------------------------6-8-6--11-10-8-8-----|
|-5~-5~-5h7-7777-7h9---9p7-5h7--9~--9-7-9-7~-12-10-9-9--9~-|
|-7~-7~-7h9-9999-9h10-10p9-7h9-10~-10------------------10~-|
|----------------------------------------------------------|
|----------------------------------------------------------|
PM          ----

|-------------------------------------------------------|
|-8h10p8----------8-------------------------------------|
|-9h10p9-10--9-10-9-10--9-7----7------------------------|
|--------12-10-12---12-10-9-10-9-10-7~-7-8--7-5~-5-7-5~-|
|---------------------------12---12-8~-8-10-8-7~-7-8-7~-|
|-------------------------------------------------------|
PM       "- "- "- - "- "- - "- - --

Pre-Verse-Fill
|----------------|
|----------------|
|----------------|
|----------------|
|-2--2--2--2--5~-|
|-0--0--0--0--3~-|

Solo 2
|-------------------------------------------------------------------|
|-----12---12---12-15-12~-12b-13h15p13-12-10------------------------|
|--------------------------------------------12-9-10-12-10~-12-/14~-|
|-9-9----9----9-----------------------------------------------------|
|-------------------------------------------------------------------|
|-------------------------------------------------------------------|
PM- -    -    -

|-12-12-10-10-9--12-12-10-10-9--12-12-10-10-9--12-12-10-10-9-|
|------------------------------------------------------------|
|------------------------------------------------------------|
|------------------------------------------------------------|
|------------------------------------------------------------|
|------------------------------------------------------------|

|-15-15-14-14-12--17-17-15-15-14--19-19-17-17-15--20-20-19-19-17-/22b-~|
|----------------------------------------------------------------------|
|----------------------------------------------------------------------|
|----------------------------------------------------------------------|
|----------------------------------------------------------------------|
|----------------------------------------------------------------------|
 
 
Volbeat - The Hangmans Body Count :: indexed at Ultimate Guitar.
The Hangmans Body Count tabs @ 911Tabs

Quick tip, so you can enjoy The Hangmans Body Count even more:

YourChords.com Guitar Chords and Tabs Archive is currently indexing over 240'000 songs from 21'000+ different artists. And new chords just keep on coming in, so you will surely never run out of them.

Show us your talent, perform The Hangmans Body Count!

Here you can post a video or audio performance. Tell me more ...
Where can we find your performance? Tell me more ...
Your comment:
Please, log in to post your performance.