Artists by letter: A B C D E F G H I J K L M N O P Q R S T U V W X Y Z 0-9

 
The Devils Bleeding Crown
A fun song to play.  Just a quick note:  Michael Poulsen doesn't adhere to the "downpick everything" like 
a lot of hardcore Hetfield fans (like myself).  It's hard to get that "groove" going in this song doing that. 
This song is good practice getting that "loose" alternate picking down.

I didn't mark all the Palm Muted notes...you can most likely tell where they go.

Tuning:  D Standard (down 1 whole step)


[Intro]

D|-------------------------------------------------|-----------------------------------|
A|-------------------------------------------------|-----------------------------------|
F|-------------------------------------------------|-----------------------------------|
C|--11--11--11--11--9--11--11--9---11--14---11--9--|--11--11--11--11-------------------|
G|--11--11--11--11--9--11--11--9---11--14---11--9--|--11--11--11--11---7--7--9-9b11b9-7|
D|--9---9---9---9---7--9---9---7---9---12---9---7--|--9---9---9---9----0---------------|
    ******Play this 3x***************************

D|-----------------------------------------------------------------------------------------------------------|
A|-----------------------------------------------------------------------------------------------------------|
F|-----------------------------------------------------------------------------------------------------------|
C|-----------------------------------------------------------------------------------------------------------|
G|----------------------------------------------7-------------------------------------------9h11-11-11-11p9--|
D|-9--9--12p9-9-9--9--12p9-9-9--9--12p9-9--7--7---7--9--9--12p9-9-9--9--12p9-9-9-9--12p9-9-----------------12|


[Verse]

D|-----------------------------------------------------------------------------------------------------------|
A|-----------------------------------------------------------------------------------------------------------|
F|-----------------------------------------------------------------------------------------------------------|
C|--11--x-x-x-x-x---x-x-x-x-x---x-x-x-x-x---x--x--x--x-------------------------------------------------------|
G|--11--x-x-x-x-x---x-x-x-x-x---x-x-x-x-x---x--x--x--x------------------------------------------------7------|
D|--9---x-x-x-x-x---x-x-x-x-x---x-x-x-x-x---x--x--x--x---9--9--12p9-9-9--9--12p9-9-9--9--12p9-9--7--7----7---|

    Falling from the sky....
    Call upon it’s father...


D|-----------------------------------------------------------------------------------------------------------|
A|-----------------------------------------------------------------------------------------------------------|
F|-----------------------------------------------------------------------------------------------------------|
C|--11-x-x-x-x-x--x-x-x-x-x--x-x-x-x-x--x--x--x--x-----------------------------------------------------------|
G|--11-x-x-x-x-x--x-x-x-x-x--x-x-x-x-x--x--x--x--x------------------------------------------9h11-11-11-11h9--|
D|--9--x-x-x-x-x--x-x-x-x-x--x-x-x-x-x--x--x--x--x---9--9--12p9-9-9--9--12p9-9-9--9--12p9-9----------------12|

    Drenching the soil with blood....
    Take him to Astaroth....


[Chorus]

D|-------------------------------------------------------------------------------------------------------|
A|-------------------------------------------------------------------------------------------------------|
F|-------------------------------------------------------------------------------------------------------|
C|-7------------7----------------------7------------9----------------------9---------9-------------------|
G|-7------------7----------------------7------------7---7-7-7-7h9p7""7-7-7-7--7/9-11---11-9-7-7-9-7------|
D|-5----5-5-5-5-5---5-5-5-5-5--5-5-5-5-5---5-5-5-5-------------------------------------------------------|

              The Devi's  Spawn   no   longer     breathes...

D|-------------------------------------------------------------------------------------------------------|
A|-------------------------------------------------------------------------------------------------------|
F|-------------------------------------------------------------------------------------------------------|
C|-7------------------------------------------------9----------------------9---------9-------------------|
G|-7------------------------------------------------7---7-7-7-7h9p7""7-7-7-7--7/9-11---11-9-7-7-9-7------|
D|-5----5-5-5-5-5---5-5-5-5-5--5-5-5-5-5---5-5-5-5-------------------------------------------------------|

              Descending Angels...

D|--------------------------------------------------------------------------------------------------|
A|--------------------------------------------------------------------------------------------------|
F|--------------------------------------------------------------------------------------------------|
C|-7------------7----------------------7-------------9----------9----------9----9---------------11--|
G|-7------------7----------------------7-------------9----------9----------9----9---------------11--|
D|-5----5-5-5-5-5---5-5-5-5-5--5-5-5-5-5---5-5-5-5---7--7-7-7-7-7--7-7-7-7-7----7--------------*9---|
                                                                                        *Play only after
                                                                                          2nd chorus
              Raise your hands...                                     The  De - vil's Bleeding Crown...

D|-----------------------------------------------------------------------------------------------------------|
A|-----------------------------------------------------------------------------------------------------------|
F|-----------------------------------------------------------------------------------------------------------|
C|-----------------------------------------------------------------------------------------------------------|
G|-----------------------------------------------------------------------------------------9h11-11-11-11-9---|
D|-9--9--12-9-9---9--12-9-9---9--12--9--7--7--12--7----9--9--12-9-9---9--12-9-9--9--12--9-----------------12-|
  **Play this only after 1st Chorus, then go to Verse 2**
   **After 2nd Chorus, go to Interlude and Solo**


[Interlude]

D|--------------------------------------------------------------------------------------------------------|
A|--------------------------------------------------------------------------------------------------------|
F|--------------------------------------------------------------------------------------------------------|
C|-------------------------------------------------------------------------------------------9------------|
G|-------------9h11---------------------9h11-11-11p9----------------9h11-----------------------11-9-7h9p7-|
D|-9-9-9-9-9-9------9-9-9-9-9-9-9-9-9-9--------------12-9-9-9-9-9-9------9-9-9-9-9-9-9-9-9-9--------------|
                                        ********Play 4x**********

[Solo]

D|---------------------------------------------------------------------------------------------|
A|---------------------------------------------------------------------------------------------|
F|-------------------------------------------------------------9-------------------------------|
C|-9-------------------------------------------9------------7--9-------------------------------|
G|-9-------------------------------------------9------------7--7-------------------------------|
D|-7-------------12p9--9--9--9-12p9--9--9--9---7------------5-----12p9--9--9--9-12p9--9--9--9--|


D|---------------------------------------------------------------------------------------------|
A|---------------------------------------------------------------------------------------------|
F|---------------------------------------------------------------------------------------------|
C|-9------------------------------------------9--------7---------------------------------------|
G|-9------------------------------------------9--------7-----------9---7---6---7---6-----------|
D|-7-------------12p9--9--9--9-12p9--9--9--9--7--------5-------------------------------7-------|


D|-----------------------------------------------------------------------------------------------------------|
A|-----------------------------------------------------------------------------------------------------------|
F|-----------------------------------------------------------------------------------------------------------|
C|-9/11--11-11--11-11--11-11--11-11--11-11--11-11--11-11--9/11--11-11--11-11--11-11--11-11--11\9-------------|
G|-9/11--11-11--11-11--11-11--11-11--11-11--11-11--11-11--9/11--11-11--11-11--11-11--11-11--11\9--9-7-6-7-6--|
D|-7/9---9--9---9--9---9--9---9--9---9--9---9--9---9--9---7/9---9--9---9--9---9--9---9--9---9-\7------------7|


[Bridge]

D|-----------------------------------------------------------------------------------------------------------|
A|-----------------------------------------------------------------------------------------------------------|
F|-----------------------------------------------------------------------------------------------------------|
C|-9/11-11-11--11-11--11-11--11-11--11-11--11-11--11-11-9/11-11-11--11-11--11-11--11-11--11-11--11-11--11-11-|
G|-9/11-11-11--11-11--11-11--11-11--11-11--11-11--11-11-9/11-11-11--11-11--11-11--11-11--11-11--11-11--11-11-|
D|-7/9--9--9---9--9---9--9---9--9---9--9---9--9---9--9--7/9--9--9---9--9---9--9---9--9---9--9---9--9---9--9--|

           They gathered all the children outside the church....

D|-----------------------------------------------------------------------------------------------------------|
A|-----------------------------------------------------------------------------------------------------------|
F|-----------------------------------------------------------------------------------------------------------|
C|-9/11--11-11--11-11--11-11--11-11--11-11--11-11--11-11--9/11--11-11--11-11--11-11--11-11--11\9-------------|
G|-9/11--11-11--11-11--11-11--11-11--11-11--11-11--11-11--9/11--11-11--11-11--11-11--11-11--11\9--9-7-6-7-6--|
D|-7/9---9--9---9--9---9--9---9--9---9--9---9--9---9--9---7/9---9--9---9--9---9--9---9--9---9-\7------------7|

           Close the door and hear all the angels scream....

D|-----------------------------------------------------------------------------------------------------------|
A|-----------------------------------------------------------------------------------------------------------|
F|-----------------------------------------------------------------------------------------------------------|
C|-9/11--11-11-11-11-11--11-11-11-11-11--11-11-11-11-11--11-11-11-11--9/11--11-11--11-11--11-11--11-11--11-11|
G|-9/11--11-11-11-11-11--11-11-11-11-11--11-11-11-11-11--11-11-11-11--9/11--11-11--11-11--11-11--11-11--11-11|
D|-7/9---9--9--9--9--9---9--9--9--9--9---9--9--9--9--9---9--9--9--9---7/9---9--9---9--9---9--9---9--9---9--9-|
           *******(the note groupings change on this measure)*********
           Down...Down...Doooowwwwn...

D|-----------------------------------------------------------------------------------------------------------|
A|-----------------------------------------------------------------------------------------------------------|
F|-----------------------------------------------------------------------------------------------------------|
C|-11-11--11-11--9/11--11-11-11-11-11--11-11-11-11-11--11-11-11-11-11--11-11-11-11--9/11--11-11--11-11--11-11|
G|-11-11--11-11--9/11--11-11-11-11-11--11-11-11-11-11--11-11-11-11-11--11-11-11-11--9/11--11-11--11-11--11-11|
D|-9--9---9--9---7/9---9--9--9--9--9---9--9--9--9--9---9--9--9--9--9---9--9--9--9---7/9---9--9---9--9---9--9-|

                         Lord...Lord...Loooord......                                     
 The Horned One.....

D|-----------------------------------------------------------------------------------------------------------|
A|-----------------------------------------------------------------------------------------------------------|
F|----------------------------------------------------------------------9-------9-------9h11p9---------------|
C|-11-11--11-11--11-11--11-11--------------------------9h11-11-11-11-11---11-11---11-11--------11-9----------|
G|-11-11--11-11--11-11--11-11---------9h11-11-11-11-11----------------------------------------------11-9-----|
D|-9--9---9--9---9--9---9--9---------------------------------------------------------------------------------|

   ...is back and he wants his crown

**Play Chorus 1x then to Outro**


[Outro]

D|-----------------------------------------------------------------------------------------------------------|
A|-----------------------------------------------------------------------------------------------------------|
F|-----------------------------------------------------------------------------------------------------------|
C|-----------------------------------------------------------------------------------------------------------|
G|----------------------------------------------7-------------------------------------------9h11-11-11-11p9--|
D|-9--9--12p9-9-9--9--12p9-9-9--9--12p9-9--7--7---7--9--9--12p9-9-9--9--12p9-9-9-9--12p9-9-----------------12|


D|-------------------------------------------------|-----------------------------------|
A|-------------------------------------------------|-----------------------------------|
F|-------------------------------------------------|-----------------------------------|
C|--11--11--11--11--9--11--11--9---11--14---11--9--|--11--11--11--11-------------------|
G|--11--11--11--11--9--11--11--9---11--14---11--9--|--11--11--11--11---7--7--9-9b11b9-7|
D|--9---9---9---9---7--9---9---7---9---12---9---7--|--9---9---9---9----0---------------|
    ******Play this 3x***************************


D|--------------------------------------------------------------------------------------|
A|--------------------------------------------------------------------------------------|
F|--------------------------------------------------------------------------------------|
C|-7---7---7---7--7---9---9---9---9--9---9--/--11---------------------------------------|
G|-7---7---7---7--7---9---9---9---9--9---9--/--11---------------------------------------|
D|-5---5---5---5--5---7---7---7---7--7---7--/--9----------------------------------------|


Voila!



************************************

| x  Dead note
| h  Hammer-on
| p  Pull-off
| b  Bend
| /  Slide up
| \  Slide down

************************************
 
 
Volbeat - The Devils Bleeding Crown :: indexed at Ultimate Guitar.
The Devils Bleeding Crown tabs @ 911Tabs

Quick tip, so you can enjoy The Devils Bleeding Crown even more:

If you don't really know how to deal with "Absus4" chord and his equally confusing brothers, just put the mouse cursor over them and you will be shown a helpful chord diagram.

Show us your talent, perform The Devils Bleeding Crown!

Here you can post a video or audio performance. Tell me more ...
Where can we find your performance? Tell me more ...
Your comment:
Please, log in to post your performance.