Artists by letter: A B C D E F G H I J K L M N O P Q R S T U V W X Y Z 0-9

 
Mr And Mrs Ness
-------------------------------------------------------------------------------
                             MR. & MRS. NESS - Volbeat
                   from the album: ROCK THE REBEL/METAL THE DEVIL
-------------------------------------------------------------------------------
Tabbed by: ominousnocturna
Email: [email protected]

Tuning: DADGBe (Drop D)



Intro: Guitar 1
e|---------------------------------------------------------------------------|
B|---------------------------------------------------------------------------|
G|--------------------------------------------------------8--7---------------|
D|-57-8---57-8--------57-8---57-8--------------------57-8--------------------|
A|-------5-----6--5---------5-----6--5--------------5------------------------|
D|0------------------0-------------------------------------------------------|
  x      x           x      x                      play this one the 10th time

Intro: Guitar 2   Repeat 4x  comes in on the 5th measure of guitar 1
e|---------------------------------------------------------------------------|
B|---------------------------------------------------------------------------|
G|---------------------------------------------------------------------------|
D|---------------------------------------------------------------------------|
A|0-000-000-000000-1-111-111-111111-----------1-1111-------------------------|
D|0-000-000-000000-1-111-111-111111-----------1-1111-------------------------|
    xxx xxx xxxxx    xxx xxx xxxxx            x xxxx  Play this on the 4th one





Bridge 1: Guitar 1 Repeat 4x              
e|-----------------------------------|
B|-----------------------------------|
G|-----------------------------------|
D|-----------------------------------|
A|0-000-00000-0010-000-00/888/7/5----|
D|0-000-00000-0010-000-00/888/7/5----|
    xx  xxxx  xx   xx  xx

Bridge 1: Guitar 2 - played during the 2nd repeat
e|-----------------------------------------------------------|
B|-----------------------------------------------------------|
G|/7---5-7/8\7--5h7p5-3h5p3----------------------------------|
D|--------------------------/7---5-7/8\7--5h7p5-3h5p3p0------|
A|------------------------------------------------------/5---|
D|-----------------------------------------------------------|



VERSE 2: Guitar 1
   Repeat 2x
e|--------------------------------------------------|
B|--------------------------------------------------|
G|--------------------------------------------------|
D|-57-8---57-8--------57-8---57-8-------------------|
A|-------5-----6--5---------5-----6--5--------------|
D|0------------------0------------------------------|
  x      x           x      x                   
        
VERSE 2: Guitar 2   
e|-------------------------------------------------------------------------------|
B|-------------------------------------------------------------------------------|
G|-------------------------------------------------------------------------------|
D|-------------------------------------------------------------------------------|
A|5--------6---------5---------6-----4/5\4/5------6---------5-7-5-4b5b4/5----6---|
D|-------------------------------------------------------------------------------|





Bridge 2:                
e|------------------------------------------------------------------------|
B|------------------------------------------------------------------------|
G|------------------------------------------------------------------------|
D|------------------------------------------------------------------------|
A|0-000-00000-0010-000-00/888/7/5-0-000-00000-0010-000-00/888/7/5---------|
D|0-000-00000-0010-000-00/888/7/5-0-000-00000-0010-000-00/888/7/5---------|
    xx  xxxx  xx   xx  xx           xx  xxxx  xx   xx  xx

e|----------------------------------------------------------------------------|
B|----------------------------------------------------------------------------|
G|----------------------------------------------------------------------------|
D|----------------------------------------------------------------------------|
A|1-111-11111-1131-111-11111-111-0-O00-00000-0010-000-00/888/7/5-5-------43---|
D|1-111-11111-1131-111-11111-111-0-000-00000-0010-000-00/888/7/5-5-------43---|
    xx  xxxx  xx   xx  xxXX  XX    xx  xxxx  xx   xx  xx





Chorus 1: Guitar 1
e|---------------------------------------------------------------------------|
B|---------------------------------------------------------------------------|
G|-------3-5-3-5-/77\-2h33/5-------3-5-3-5-/77\-2h33/5-----------------------|
D|---------------------------------------------------------------------------|
A|/6-------------------------/6----------------------------------------------|
D|---------------------------------------------------------------------------|

Chorus 1: Guitar 2
e|---------------------------------------------------------------------------|
B|---------------------------------------------------------------------------|
G|---------------------------------------------------------------------------|
D|----------3-------------------------------3--------------------------------|
A|1---------1---------3----------1----------1---------3----------------------|
D|1-------------------3----------1--------------------3----------------------|





Bridge 3: Guitar 1 Repeat 4x              
e|-----------------------------------|
B|-----------------------------------|
G|-----------------------------------|
D|-----------------------------------|
A|0-000-00000-0010-000-00/888/7/5----|
D|0-000-00000-0010-000-00/888/7/5----|
    xx  xxxx  xx   xx  xx

Bridge 3: Guitar 2 - played during the 2nd repeat
e|-----------------------------------------------------------|
B|-----------------------------------------------------------|
G|/7---5-7/8\7--5h7p5-3h5p3----------------------------------|
D|--------------------------/7---5-7/8\7--5h7p5-3h5p3p0------|
A|------------------------------------------------------/5---|
D|-----------------------------------------------------------|





VERSE 3: Guitar 1
   Repeat 2x
e|--------------------------------------------------|
B|--------------------------------------------------|
G|--------------------------------------------------|
D|-57-8---57-8--------57-8---57-8-------------------|
A|-------5-----6--5---------5-----6--5--------------|
D|0------------------0------------------------------|
  x      x           x      x                   
        
VERSE 3: Guitar 2   
e|-----------------------------------------------------------------------------|
B|-----------------------------------------------------------------------------|
G|-----------------------------------------------------------------------------|
D|-----------------------------------------------------------------------------|
A|5--------6---------5---------6-----4/5\4/5------6---------5-7-5-4b5b4/5----6-|
D|-----------------------------------------------------------------------------|



Bridge 4:                
e|------------------------------------------------------------------------|
B|------------------------------------------------------------------------|
G|------------------------------------------------------------------------|
D|------------------------------------------------------------------------|
A|0-000-00000-0010-000-00/888/7/5-0-000-00000-0010-000-00/888/7/5---------|
D|0-000-00000-0010-000-00/888/7/5-0-000-00000-0010-000-00/888/7/5---------|
    xx  xxxx  xx   xx  xx           xx  xxxx  xx   xx  xx

e|----------------------------------------------------------------------------|
B|----------------------------------------------------------------------------|
G|----------------------------------------------------------------------------|
D|----------------------------------------------------------------------------|
A|1-111-11111-1131-111-11111-111-0-O00-00000-0010-000-00/888/7/5-5\3/5--------|
D|1-111-11111-1131-111-11111-111-0-000-00000-0010-000-00/888/7/5-5\3/5--------|
    xx  xxxx  xx   xx  xxxx  xx    xx  xxxx  xx   xx  xx



Chorus 2 (outro): Guitar 1
e|---------------------------------------------------------------------------------|
B|---------------------------------------------------------------------------------|
G|-------3-5-3-5-/77\-2h33/5-------3-5-3-5-/77\-2h33/5--------3-5-3-5-/77\-2h33/5--|
D|---------------------------------------------------------------------------------|
A|/6-------------------------/6-------------------------/6-------------------------|
D|---------------------------------------------------------------------------------|

Chorus 2 (outro): Guitar 1
e|-----------------------------------------------------------------------------|
B|-----------------------------------------------------------------------------|
G|----------------------------------------------------------------------8--7---|
D|-57-8---57-8--------57-8---57-8--------57-8---57-8--------57-8---57-8--------|
A|-------5-----6--5---------5-----6--5---------5-----6--5---------5------------|
D|0------------------0------------------0------------------0-------------------|
  x      x           x      x           x      x           x      x

Chorus 2 (outro): Guitar 2  Repeat 3x
e|---------------------------------------------------------------------------|
B|---------------------------------------------------------------------------|
G|---------------------------------------------------------------------------|
D|---------------3--------------------------------------3--------------------|
A|1--------------1-------------3------------1-----------1-----------3--------|
D|1----------------------------3------------1-----------------------3--------|

Chorus 2 (outro): Guitar 2  Repeat 3x  
e|---------------------------------------------------------------------------|
B|---------------------------------------------------------------------------|
G|---------------------------------------------------------------------------|
D|---------------------------------------------------------------------------|
A|0-000-000-000000-1-111-111-111111-----------1-1111-------------------------|
D|0-000-000-000000-1-111-111-111111-----------1-1111-------------------------|
    xxx xxx xxxxx    xxx xxx xxxxx            x xxxx  Play this on the 3rd one





| /  slide up
| \  slide down
| h  hammer-on
| p  pull-off
| ~  vibrato
| +  harmonic
| x  Mute note
| b  bend up or down
===============================================================================
 
 
Volbeat - Mr And Mrs Ness :: indexed at Ultimate Guitar.
Mr And Mrs Ness tabs @ 911Tabs

Quick tip, so you can enjoy Mr And Mrs Ness even more:

YourChords.com Guitar Chords and Tabs Archive is currently indexing over 240'000 songs from 21'000+ different artists. And new chords just keep on coming in, so you will surely never run out of them.

Show us your talent, perform Mr And Mrs Ness!

Here you can post a video or audio performance. Tell me more ...
Where can we find your performance? Tell me more ...
Your comment:
Please, log in to post your performance.