Artists by letter: A B C D E F G H I J K L M N O P Q R S T U V W X Y Z 0-9

 
Making Believe
Intro: (let chords ring)

G         G   C                 G       G
Making believe...that you still love me
       D     D                G   G     
It's leaving me...alone and so blue
           G  C                   G        G
I'll always dream...but I'll never own you
      D     D                      G
Making believe...that's all I can do

Verse 1:
        G   C                  G 
Making believe...that you still love me
       D                      G
It's leaving me...alone and so blue
           G   C                  G
I'll always dream...but I'll never own you
      D                        G
Making believe...is all I can do



Verse 2:
             D                                 G
I can't hold you close...darling when you're not with me
           D                         G
You're somebody's love...you'll never be mine
      G      C                G 
Making believe...I'll spend my lifetime
   D                    G
Loving you...and making believe

Solo A:
e-|-------------------------------------------------------------------------|
B-|-------------------------------------------------------------------------|
G-|-------------------------------------------------------------------------|
D-|-------------------------------------------------------------------------|
A-|-5-5-----5-8-10-9-9-10-9-9-9~-5--5-5-------5-5-5-6h5---------------------|
E-|-----8-6----------------------------8-6-5-8----------8-6-----------------|

Solo B:
e-|-------------------------------------------------------------------------|
B-|-------------------------------------------------------------------------|
G-|-7-7------7-8b10--12-10-10-12-10-10-10~-7--7-7-7----------7-7-7-8-7------|
D-|-----10-8----------------------------------------10-8-7-10----------10-8-|
A-|-------------------------------------------------------------------------|
E-|-------------------------------------------------------------------------|

Repeat Verse 2, Repeat Solo B, Repeat Verse 1, Repeat Verse 2

End:
       D                   G
Just loving you...and making believe
       D                   
Just loving you...                            
                 G  C G G G
...and making believe

 
 
Volbeat - Making Believe :: indexed at Ultimate Guitar.
Making Believe tabs @ 911Tabs

Quick tip, so you can enjoy Making Believe even more:

After the registration (which takes just 10 seconds, remember?) you will be able to use your profile - your very own piece of YourChords.com.

Show us your talent, perform Making Believe!

Here you can post a video or audio performance. Tell me more ...
Where can we find your performance? Tell me more ...
Your comment:
Please, log in to post your performance.