Artists by letter: A B C D E F G H I J K L M N O P Q R S T U V W X Y Z 0-9

 
Heaven Nor Hell
---------------------------------------------------------------------------
			     Heaven Nor Hell - Volbeat
---------------------------------------------------------------------------
Tabbed by: niggl90

Tuning: D-Tuning

Part 1
d|---------------------------------------------------------|
A|---------------------------------------------------------|
F|-10-10---10-10---10-10---10--15-15---10-10---------------|
C|-10-10---10-10---10-10---10--15-15---10-10---10-10-------|
G|-8--8----8--8----8--8----8---13-13---8--8----10-10-------|
D|---------------------------------------------8--8--------|

d|-----------------------------------------------------------|
A|-----------------------------------------------------------|
F|-10-10---10-10---10-10---10--15-15---10-10-----------------|
C|-10-10---10-10---10-10---10--15-15---10-10---10-10---------|
G|-8--8----8--8----8--8----8---13-13---8--8----10-10-let ring|
D|---------------------------------------------8--8----------|
                                                  End Part 1

d|----------------------------------------------------|
A|----------------------------------------------------|
F|----------------------------------------------------|
C|----------------------------------------------------|
G|-10-10-10-10-10-10-10-10-10-10-10-10-10-10-10-10----|
D|-8--8--8--8--8--8--8--8--8--8--8--8--8--8--8--8-----|
PM|----------------------------------------------|

Part 2                      
d|-------------------|-------------------------|
A|-------------------|-------------------------|
F|-10--15--10--------|-------------------------|
C|-10--15--10--10-2x-|-------------------------|
G|-8---13--8---10----|-10-10-10-10-10-10-10-10-|
D|-------------8-----|-8--8--8--8--8--8--8--8--|
Strum Chords        PM|-----------------------|
                                   End Part 2

-  Repeat Part 1  - 1x

Part 3
d|------------------------------------------------------------|
A|------------------------------------------------------------|
F|------------------------------------------------------------|
C|-10-10-10-10-10-10-10-10-10-10-10-10-10-10-10-10--15--15--15|
G|-8--8--8--8--8--8--8--8--8--8--8--8--8--8--8--8---13--13--13|
D|------------------------------------------------------------|
PM|----------------------------------------------------------|



d|---------------------------------------|
A|---------------------------------------|
F|---------------------------------------|
C|-10-10-10------------------------------|
G|-8--8--8--10-10-10-10-10-10-10-10-10-10|
D|----------8--8--8--8--8--8--8--8--8--8-|
PM|-------------------------------------|

d|------------------------------------------------------------|
A|------------------------------------------------------------|
F|------------------------------------------------------------|
C|-10-10-10-10-10-10-10-10-10-10-10-10-10-10-10-10--15--15--15|
G|-8--8--8--8--8--8--8--8--8--8--8--8--8--8--8--8---13--13--13|
D|------------------------------------------------------------|
PM|----------------------------------------------------------|

d|---------------------------------------------------|
A|---------------------------------------------------|
F|---------------------------------------------------|
C|-10-10-10------------------------------------------|
G|-8--8--8--10-10-let ring---10-10-10-10-10-10-10-10-|
D|----------8--8-------------8--8--8--8--8--8--8--8--|
PM|--------|

Part 4
d|---------------------------------------------|-----------------------|
A|---------------------------------------------|-----------------------|
F|-----------10----------------10--------------|-----------------------|
C|--8---10---10---8---8---10---10---8---8---10-|--------------------2x-|
G|--8---10---8----8---8---10---8----8---8---10-|-10-10-10-10-10-10-----|
D|--6---8---------6---6---8---------6---6---8--|-8--8--8--8--8--8------|
Strum Chords                         End Part 4 |---3---| |---3---|
                           
                                                Alt. Ending

-	Repeat Part 2 - 1x
-	Repeat Part 1 - 1x
-	Repeat Part 3 - 1x
-	Repeat Part 4 - 1x with alt. Ending

Part 5

Guitar 1
d|------------------------------------------------------------|
A|------------------------------------------------------------|
F|/14--14--14---12-10-7~--9-9-9--9-9-9--10-10-10--12-12-12----|
C|------------------------------------------------------------|
G|------------------------------------------------------------|
D|------------------------------------------------------------|
                          |-3-|  |-3-|   |--3--|  |--3--|
PM                       |--------------------------------|    
         
Guitar 2
d|------------------------------------------------------------|
A|------------------------------------------------------------|
F|------------------------------------------------------------|
C|------------------------------------------------------------|
G|--3---------------(3)/8---------------------------------(8)\|
D|--1-let-ring------(1)/6----let-ring---------------------(6)\|



Guitar 1
d|------------------------------------------------------------|
A|------------------------------------------------------------|
F|/14--14---/14/14---12---7~-9-9-9--9-9-9--10-10-10--12-12-12-|
C|------------------------------------------------------------|
G|------------------------------------------------------------|
D|------------------------------------------------------------|
                             |-3-|  |-3-|  |--3--|    |--3--|
PM                           |-------------------------------|

Guitar 2
d|------------------------------------------------------------|
A|------------------------------------------------------------|
F|------------------------------------------------------------|
C|------------------------------------------------------------|
G|-3-------------------(3)/8------------------------------(8)\|
D|-1--let-ring---------(1)/6---let-ring-------------------(6)\|
                                                     End Part 5

-	Repeat Part 5 -  1x

Part  6

Guitar 1
d|------------------------------------------------------------|
A|------------------------------------------------------------|
F|------------------------------------------------------------|
C|------------------------------------------------------------|
G|/12--12--12---10-8-5~----7-7-7--7-7-7--8-8-8--10-10-10------|
D|------------------------------------------------------------|
                           |-3-|  |-3-|  |-3-|  |--3--|
PM                         |----------------------------|

Guitar 2
d|------------------------------------------------------------|
A|------------------------------------------------------------|
F|------------------------------------------------------------|
C|------------------------------------------------------------|
G|-3-----------------8----------------------------------------|
D|-1-----------------6----------------------------------------|
   Strum throughout    PM

Guitar 1
d|------------------------------------------------------------|
A|------------------------------------------------------------|
F|------------------------------------------------------------|
C|------------------------------------------------------------|
G|/12--12---/12/12---10---5~-7-7-7--7-7-7--8-8-8--10-10-10----|
D|------------------------------------------------------------|
                             |-3-|  |-3-|  |-3-|   |--3--|
PM                           |----------------------------|

Guitar 2
d|------------------------------------------------------------|
A|------------------------------------------------------------|
F|------------------------------------------------------------|
C|------------------------------------------------------------|
G|-3-----------------------8----------------------------------|
D|-1-----------------------6----------------------------------|
   Strum Throughout    PM                             End Part 6

-	Repeat Part 5 - 1x
-	Repeat Part 6 - 1x

d|-------------------------------------------------|
A|-------------------------------------------------|
F|-------------------------------------------------|
C|-------------------------------------------------|
G|--10-----10-10-10----10-10-10-10-10-10-10-10-----|
D|--8------8--8--8-----8--8--8--8--8--8--8--8------(
PM                    |-----------------------|

-	Repeat Part 2 - 1x
-	Repeat Part 1 - 1x
-	Repeat Part 3 - 1x
-	Repeat Part 4 - 1x with alt. Ending
-	Repeat Part 5 - 1x Strum the Chords

Strum Chords until the End

| \   slide down
| ~   vibrato
| /   slide up


 
 
Volbeat - Heaven Nor Hell :: indexed at Ultimate Guitar.
Heaven Nor Hell tabs @ 911Tabs

Quick tip, so you can enjoy Heaven Nor Hell even more:

YourChords.com Guitar Chords and Tabs Archive is currently indexing over 240'000 songs from 21'000+ different artists. And new chords just keep on coming in, so you will surely never run out of them.

Show us your talent, perform Heaven Nor Hell!

Here you can post a video or audio performance. Tell me more ...
Where can we find your performance? Tell me more ...
Your comment:
Please, log in to post your performance.