Artists by letter: A B C D E F G H I J K L M N O P Q R S T U V W X Y Z 0-9

 
Fallen
-------------------------------------------------------------------------------
                                 Fallen - Volbeat
-------------------------------------------------------------------------------
Tabbed by: CatWithAMustach
E-mail:[email protected]

************************************
h - Hammer-on
. - Palm Mute
p - Pull-Off
< - Accent
************************************

Tuning: D Standard


Intro (0:00): (Rhythm - Distortion)
d|------------------------------------------------------------------------|
A|------------------------------------------------------------------------|
F|------------------------------------------------------------------------|
C|----------------------------------13p11-----11-----11--13--14--13-11-13-| x5
G|-9h11-----11----11----------11----0-----0-0-0--0-0-0-0-0-0-0-0-0--0--0--|
D|-0----0-0-0-0-0-0-0-0-0-0-0-0-0-0---------------------------------------|
        . .   . .   . . . . .   . .       . .    . .   .   .   .  
d|-------------------------------------------------------------------------|
A|-------------------------------------------------------------------------|
F|-------------------------------------------------------------------------|
C|----------------------------------13p11-------------11-11-11-11-11-11-11-|
G|-9h11-----11----11----------11----0-----0-0-0-0-0-0-0--0--0--0--0--0--0--|
D|-0----0-0-0-0-0-0-0-0-0-0-0-0-0-0----------------------------------------|
        . .   . .   . . . . .   . .       . . . . . . .  .  .  
Intro (0:13): (Lead - Clean)
d|-0----------------0--------0--------0--------0--------0--------0--------|
A|-0----------------0--------0--------0--------0--------0--------0--------|
F|-1----------------1--------2--------1--------2--------1--------2--------|
C|-4----------------4--------2--------4--------2--------4--------2--------|
G|-2----------------2--------0--------2--------0--------2--------0--------|
D|-0----------------0-----------------0-----------------0-----------------|

Build-up (0:40): (Lead - Reverb)
d|---------------------------------|
A|---------------------------------|
F|-14--------------13------11------|
C|---------------------------------|
G|---------------------------------|
D|---------------------------------|

(Rhythm - Distortion)
d|---------------------------------|
A|---------------------------------|
F|---------------------------------|
C|---------------------------------|
G|-7-7-7-7-7-7-7-7-7-7-7-7-4-4-4-4-|
D|-5-5-5-5-5-5-5-5-4-4-4-4-2-2-2-2-|
   . . . . . . . . . . . . . . . .
Pre-Verse (0:43): (Lead - Reverb)
d|-------------------------------------------------------------------------------------|
A|-------------------------------------------------------------------------------------|
F|-------------------------------------------------------------------------------------|
C|-----------------------------------------------13p11-11-11-11-11-11-11-9-9-7-7-6-6-6-| 
G|-9h11-11-11-11-11-11-11-11-11-11-11-11-11-11-0---------------------------------------|
D|-------------------------------------------------------------------------------------|

d|-----------------------------------------------|
A|-----------------------------------------------|
F|-----------------------------------------------|
C|-----------------------------------------------| 
G|-9h11-11-11-11-11-11-11-11-11-11-11-11-11-11-0-|
D|-----------------------------------------------|

d|---------------------------------------------|
A|---------------------------------------------|
F|---------------------------------------------|
C|-13p11-11-11-11-11-11-11-13-13-14---14-14-14-| 
G|---------------------------------------------|
D|---------------------------------------------|

d|----------------------------------------------------------------------------------|
A|----------------------------------------------------------------------------------|
F|-11h13-13-13-13-13-13-13-13-11-11-9-9-8-8-8---------------------------------------|
C|--------------------------------------------11p13-11-11-11-11-11-11-9-9-7-7-6-6-6-| 
G|----------------------------------------------------------------------------------|
D|----------------------------------------------------------------------------------|

d|-------------------------------------------------------------------------------------|
A|-------------------------------------------------------------------------------------|
F|-11h13-13-13-13-13-13-13-13-11-11-9-9-8-8-8------------------------------------------|
C|--------------------------------------------11p13-11-11-11-11-11-11-9\7--7\6--6--7-6-| 
G|-------------------------------------------------------------------------------------|
D|-------------------------------------------------------------------------------------|

(Rhythm - Distortion)
d|-----------------------------------------------------------------|
A|---------------------------------5----5----5-5-5-5----5----5-5-x-|
F|-4----4----4-4-4-4----4----4-4-x-4----4----4-4-4-4----4----4-4-x-| x3
C|-2----2----2-2-2-2----2----2-2-x-2----2----2-2-2-2----2----2-2-x-|
G|-2----2----2-2-2-2----2----2-2-x-0----0----0-0-0-0----0----0-0-x-|
D|-0----0----0-0-0-0----0----0-0-x---------------------------------|

Verse (1:10) (Rhythm - Distortion)
d|-----------------------------------------------------------------|
A|-----------------------------------------------------------------|
F|-----------------------------------------------------------------|
C|-------------------------------------2-----2---2-----------2---2-| x2 Lead Guitar comes 
G|-----2-----2---2-----------2---2-0-0-0-0-0-0-0-0-0-0-0-0-0-0-0-0-|  in on second repeat
D|-0-0-0-0-0-0-0-0-0-0-0-0-0-0-0-0---------------------------------|
   . .   . .   .   . . . . .   .   . .   . .   .   . . . . .   . 

Pre-Chorus (1:21): (Lead AND Rhythm - Distortion)
d|------------------------------------------------------------------------|
A|------------------------------------------------------------------------|
F|------------------------------------------------------------------------|
C|----------------------------------13p11-----11-----11--13--14--13-11-13-|
G|-9h11-----11----11----------11----0-----0-0-0--0-0-0-0-0-0-0-0-0--0--0--|
D|-0----0-0-0-0-0-0-0-0-0-0-0-0-0-0---------------------------------------|
        . .   . .   . . . . .   . .       . .    . .   .   .   .  
d|-------------------------------------------------------------------------|
A|-------------------------------------------------------------------------|
F|-------------------------------------------------------------------------|
C|----------------------------------13p11-------------11-11-11-11-11-11-11-|
G|-9h11-----11----11----------11----0-----0-0-0-0-0-0-0--0--0--0--0--0--0--|
D|-0----0-0-0-0-0-0-0-0-0-0-0-0-0-0----------------------------------------|
        . .   . .   . . . . .   . .       . . . . . .   

Chorus (1:35): (Lead AND Rhythm - Distortion)
d|-----------------------------------------------------------------|
A|-----------------------------------------------------------------|
F|---9-99999999999999----------------------------------------------|
C|---9-9999999999999999-999999999999999\11-1111111111\9-99999\7----| x2
G|---7-7777777777777799-999999999999999\11-1111111111\9-99999\7----|
D|-0-----------------77-777777777777777\9--9-9-9-9-9\\7-77777\5----|

Post-Chorus (2:01): (Lead - Distortion)
d|------------------------------------------------------------------------|
A|------------------------------------------------------------------------|
F|------------------------------------------------------------------------|
C|----------------------------------13p11-----11-----11--13--14--13-11-13-|
G|-9h11-----11----11----------11----------0-0----0-0---0---0---0----------|
D|------0-0---0-0---0-0-0-0-0---0-0---------------------------------------|
        . .   . .   . . . . .   . .       . .    . .   .   .   .
d|------------------------------------------------------------------------------------|
A|------------------------------------------------------------------------------------|
F|------------------------------------------------------------------------------------|
C|----------------------------------13p11-----11-----11--13--14--13-11-13-------------|
G|-9h11-----11----11----------11----------0-0----0-0---0---0---0----------9h11-11\----|
D|------0-0---0-0---0-0-0-0-0---0-0---------------------------------------------------|
        . .   . .   . . . . .   . .       . .    . .   .   .   .
(Rhythm - Distortion)
d|-----------------------------------------------------------------|
A|-----------------------------------------------------------------|
F|-----------------------------------------------------------------|
C|---------------------------------2-------2-----2-2-2-2-2-2-2-2-2-| x2
G|-2-------2-----2-----------2-----0-0-0-0-0-0-0-0-0-0-0-0-0-0-0-0-|
D|-0-0-0-0-0-0-0-0-0-0-0-0-0-0-0-0---------------------------------|
     . . .   . .   . . . . .   . .    . . .   . .  . . . . . 
Verse (2:13): (Lead AND Rhythm - Distortion)
d|-----------------------------------------------------------------|
A|-----------------------------------------------------------------|
F|-----------------------------------------------------------------|
C|-------------------------------------2-----2---2-----------2---2-| x2 Lead Guitar comes 
G|-----2-----2---2-----------2---2-0-0-0-0-0-0-0-0-0-0-0-0-0-0-0-0-|  in on second repeat
D|-0-0-0-0-0-0-0-0-0-0-0-0-0-0-0-0---------------------------------|
   . .   . .   .   . . . . .   .   . .   . .   .   . . . . .   . 

Pre-Chorus (2:26): (Lead AND Rhythm - Distortion)
d|------------------------------------------------------------------------|
A|------------------------------------------------------------------------|
F|------------------------------------------------------------------------|
C|----------------------------------13p11-----11-----11--13--14--13-11-13-|
G|-9h11-----11----11----------11----0-----0-0-0--0-0-0-0-0-0-0-0-0--0--0--|
D|-0----0-0-0-0-0-0-0-0-0-0-0-0-0-0---------------------------------------|
        . .   . .   . . . . .   . .       . .    . .   .   .   .  
d|-------------------------------------------------------------------------|
A|-------------------------------------------------------------------------|
F|-------------------------------------------------------------------------|
C|----------------------------------13p11-------------11-11-11-11-11-11----|
G|-9h11-----11----11----------11----0-----0-0-0-0-0-0-0--0--0--0--0--0--0--|
D|-0----0-0-0-0-0-0-0-0-0-0-0-0-0-0----------------------------------------|
        . .   . .   . . . . .   . .       . . . . . .   
Chorus (2:39): (Lead AND Rhythm - Distortion)
d|-----------------------------------------------------------------|
A|-----------------------------------------------------------------|
F|---9-99999999999999----------------------------------------------|
C|---9-9999999999999999-999999999999999\11-1111111111\9-99999\7----| x2
G|---7-7777777777777799-999999999999999\11-1111111111\9-99999\7----|
D|-0-----------------77-777777777777777\9--9-9-9-9-9\\7-77777\5----|

Solo (3:05): (Lead - Reverb)
d|--------------------------------------------------------------------------------|
A|--------------------------------------------------------------------------------|
F|-9h11-11-11-11-11-11-9-9-9-9-9-9-9-9-9-9h11-11-11-11-11-11-9-9-9-9-9-11p9-------|
C|--------------------------------------------------------------------------11-11-| 
G|--------------------------------------------------------------------------------|
D|--------------------------------------------------------------------------------|

d|-------------------------------------------------------------------|
A|-------------------------------------------------------------------|
F|-------------------------------------------------------------------|
C|-9h11-11-11-11-11-11-9-9--9--11-9-9-11p9-7----7-9--9\11-9-7h9-7----| 
G|-------------------------------------------------------------------|
D|-------------------------------------------------------------------|

d|-----------------------------------------------------------------------------------|
A|-----------------------------------------------------------------------------------|
F|------9----9-11b-11-11-9h11p9---------9----9-11b-11-9h11p9---------9----9-11b-11-9-|
C|-9h11---11--------------------11-9h11---11-----------------11-9h11---11------------| 
G|-----------------------------------------------------------------------------------|
D|-----------------------------------------------------------------------------------|

d|------------------------------------------------------------------|
A|------------------------------------------------------------------|
F|-11p9-11p9----------9----9-11-11-11\13-13-11-13-13h14-13-11-13p11-|
C|-----------11-9-11------------------------------------------------| 
G|------------------------------------------------------------------|
D|------------------------------------------------------------------|





d|----------------------------------------|
A|----------------------------------------|
F|-11-9-11-9h11p9--------------------9----|
C|----------------11-9----9----------9----| 
G|---------------------11---11p9-7-9-7----|
D|----------------------------------------|

(Rhythm - Distortion)
d|----------------------------------------------------------------------------|
A|----------------------------------------------------------------------------|
F|-9-99999999999999-----------------------------------------------------------|
C|-9-9999999999999999-999999999999999\11-11111111\9-99999\7--7--77777--7--777x| 
G|-7-7777777777777799-999999999999999\11-11111111\9-99999\7--7--77777--7--777x|
D|-----------------77-777777777777777\9--9--9--9\\7-77777\5--5--55555--5--555x|

d|-----------------------------------------------------------------------------------|
A|-----------------------------------------------------------------------------------|
F|-9-99999999999999------------------------------------------------------------------|
C|-9-9999999999999999-999999999999999\111111111111\9-99999\7--7--77777--7--777x-2----| 
G|-7-7777777777777799-999999999999999\111111111111\9-99999\7--7--77777--7--777x-2----|
D|-----------------77-777777777777777\9-9-9-9-9-9\\7-77777\5--5--55555--5--555x-0----|

Build-up (3:34): (Lead AND Rhythm - Overdrive Low Output) (8th Notes!)
d|----------------------------------------------------------|
A|----------------------------------------------------------|
F|----------------------------------------------------------|
C|----------------------------------------------------------| 
G|-7777777777777777-----------------------------------------|
D|-----------------7777777777777777999999997777777755555555-|
   ........................................................

(Lead - Clean)
d|-0--------0--------0----0----|
A|-0--------0--------0----0----|
F|-1--------4--------4----4----|
C|-2--------4--------2----4----| 
G|-2--------2--------4----2----|
D|-0---------------------------|

(Rhythm - Overdrive Low Output)
d|------------------------------------------------------|
A|------------------------------------------------------|
F|------------------------------------------------------|
C|---9--9-9-----9-9-------------------------------------| 
G|-7777777777777777--9--9-9-----9-9--11--11--11--9--9-9-|
D|-----------------7777777777777777999-999-9-9-77777777-|
   .. .. . ..... . .. .. . ..... . ..  ..  .   .. .. .

(Lead AND Rhythm - Overdrive Low Output)
d|---------------------------------|
A|---------------------------------|
F|---------------------------------|
C|---------------------------------|
G|-7-7-7-7-7-7-7-7-7-7-7-7-7-7-7-7-|
D|-5-5-5-5-5-5-5-5-5-5-5-5-5-5-5-5-|
       <     <   <

Chorus (2:39): (Lead AND Rhythm - Distortion)
d|----------------------------------------------------------------------------|
A|----------------------------------------------------------------------------|
F|-9-99999999999999-----------------------------------------------------------|
C|-9-9999999999999999-999999999999999\11-11111111\9-99999\7--7--77777--7--777x| 
G|-7-7777777777777799-999999999999999\11-11111111\9-99999\7--7--77777--7--777x|
D|-----------------77-777777777777777\9--9--9--9\\7-77777\5--5--55555--5--555x|

Post-Chorus (4:25): (Lead - Reverb)
d|------------------------------------------------------------------------|
A|------------------------------------------------------------------------|
F|------------------------------------------------------------------------|
C|----------------------------------13p11-----11-----11--13--14--13-11-13-| x2
G|-9h11-----11----11----------11----------0-0----0-0---0---0---0----------|
D|------0-0---0-0---0-0-0-0-0---0-0---------------------------------------|
        . .   . .   . . . . .   . .       . .    . .   .   .   .
(Rhythm - Distortion)
d|-----------------------------------------------------------------|
A|-----------------------------------------------------------------|
F|-----------------------------------------------------------------|
C|---------------------------------2-------2-----2-2-2-2-2-2-2-2-2-| x2
G|-2-------2-----2-----------2-----0-0-0-0-0-0-0-0-0-0-0-0-0-0-0-0-|
D|-0-0-0-0-0-0-0-0-0-0-0-0-0-0-0-0---------------------------------|
     . . .   . .   . . . . .   . .    . . .   . .  . . . . . 
Outro (4:37): (Lead - Reverb)
d|----------------------------------------------------------------------------------|
A|----------------------------------------------------------------------------------|
F|-11h13-13-13-13-13-13-13-13-11-11-9-9-8-8-8---------------------------------------|
C|--------------------------------------------11p13-11-11-11-11-11-11-9-9-7-7-6-6-6-| 
G|----------------------------------------------------------------------------------|
D|----------------------------------------------------------------------------------|

d|--------------------------------------------------------------------------------------|
A|--------------------------------------------------------------------------------------|
F|-11h13-13-13-13-13-13-13-13-11-11-9-9-8-8-8-------------------------------------------|
C|--------------------------------------------11p13-11-11-11-11-11-11-9\7--7\6--6--7-6--| 
G|--------------------------------------------------------------------------------------|
D|--------------------------------------------------------------------------------------|

(Rhythm - Distortion)
d|-----------------------------------------------------------------|
A|---------------------------------5----5----5-5-5-5----5----5-5-x-|
F|-4----4----4-4-4-4----4----4-4-x-4----4----4-4-4-4----4----4-4-x-|
C|-2----2----2-2-2-2----2----2-2-x-2----2----2-2-2-2----2----2-2-x-|
G|-2----2----2-2-2-2----2----2-2-x-0----0----0-0-0-0----0----0-0-x-|
D|-0----0----0-0-0-0----0----0-0-x---------------------------------|
d|----------------------------------------------------------------------|
A|---------------------------------5----5----5-5-5-5----5----5-5-x------|
F|-4----4----4-4-4-4----4----4-4-x-4----4----4-4-4-4----4----4-4-x------|
C|-2----2----2-2-2-2----2----2-2-x-2----2----2-2-2-2----2----2-2-x-2----|
G|-2----2----2-2-2-2----2----2-2-x-0----0----0-0-0-0----0----0-0-x-2----|
D|-0----0----0-0-0-0----0----0-0-x---------------------------------0----|

 
 
Volbeat - Fallen :: indexed at Ultimate Guitar.
Fallen tabs @ 911Tabs

Quick tip, so you can enjoy Fallen even more:

After the registration (which takes just 10 seconds, remember?) you will be able to use your profile - your very own piece of YourChords.com.

Show us your talent, perform Fallen!

Here you can post a video or audio performance. Tell me more ...
Where can we find your performance? Tell me more ...
Your comment:
Please, log in to post your performance.