Artists by letter: A B C D E F G H I J K L M N O P Q R S T U V W X Y Z 0-9

 
Evelyn
                                   Song:Evelyn
                                  Artist:Volbeat
Tabbed by:Volbeat246

This is by far the heaviest song off Volbeat's latest album Beyond Hell/Above
Heaven and I love playing it. Thanks to other tabs on this site for helping me get the ball
rolling with this song. This is my first tab and I think this is pretty close to 100%. 
If you catch any mistakes please comment and I'll try to fix them.

Intro:

Rhythm
D#|-------------------------------------------------------------------------|
A#|-------------------------------------------------------------------------|
F#|-------------------------------------------------------------------------|
C#|------------------------------------------------------------57-----------|
G#|0-00-00--3-00-00--5-66-66-6535--0-00-00--3-00-00--5-66-66-6535-----------|
C#|0-00-00--3-00-00--5-66-66-6535--0-00-00--3-00-00--5-66-66-65-------------|

Lead
D#|-------------------------------------------------------------------------|
A#|-------------------------------------------------------------------------|
F#|-------------------------------------------------------------------------|
C#|------------------------------------------------------------57-----------|
G#|0-------------------------------0---------------------------35-----------|
C#|0-------------------------------0----------------------------------------|

Rhythm plays 3 times. Lead is played first time then plays the same as Rhythm next 2 times.

Verse 1:

Both Guitars
D#|-------------------------------------------------------------------------|
A#|-------------------------------------------------------------------------|
F#|-------------------------------------------------------------------------|
C#|--------------3----------------------------------------------------------|
G#|0-----0------/-\-0-----0-----0---3h5-0h1-3h5-----------------------------|
C#|0-0-0-0-0-0-0000-0-0-0-0-0-0-0-x----x---x--------------------------------|
     . .   . . ....   . .   . .   .    .   .

D#|-------------------------------------------------------------------------|
A#|-------------------------------------------------------------------------|
F#|-------------------------------------------------------------------------|
C#|--------------3----------------------3-----------------------------------|
G#|0-----0------/-\-0-----6-----6------/-\-3--------------------------------|
C#|0-0-0-0-0-0-0000-0-0-0-6-6-6-6-6-6-5555-3-3-3----------------------------|
     . .   . . ....   . .   . .   . . ....   . .

D#|-------------------------------------------------------------------------|
A#|-------------------------------------------------------------------------|
F#|-------------------------------------------------------------------------|
C#|--------------3----------------------------------------------------------|
G#|0-----0------/-\-0-----0-----0---3h5-0h1-3h5-----------------------------|
C#|0-0-0-0-0-0-0000-0-0-0-0-0-0-0-x----x---x--------------------------------|
     . .   . . ....   . .   . .   .    .   .

D#|-------------------------------------------------------------------------|
A#|-------------------------------------------------------------------------|
F#|-------------------------------------------------------------------------|
C#|--------------3----------------------------------------------------------|
G#|0-----0------/-\-0-----6-----5-------------------------------------------|
C#|0-0-0-0-0-0-0000-0-0-0-6-----5-------------------------------------------|
     . .   . . ....   . .

Repeat all of verse once.

Bridge 1: (intro riff)

Both Guitars
D#|-------------------------------------------------------------------------|
A#|-------------------------------------------------------------------------|
F#|-------------------------------------------------------------------------|
C#|------------------------------------------------------------57-----------|
G#|0-00-00--3-00-00--5-66-66-6535--0-00-00--3-00-00--5-66-66-6535-----------|
C#|0-00-00--3-00-00--5-66-66-6535--0-00-00--3-00-00--5-66-66-65-------------|

Repeat once.

Verse 2:

Both Guitars

D#|-------------------------------------------------------------------------|
A#|-------------------------------------------------------------------------|
F#|-------------------------------------------------------------------------|
C#|--------------3----------------------------------------------------------|
G#|0-----0------/-\-0-----0-----0---3h5-0h1-3h5-----------------------------|
C#|0-0-0-0-0-0-0000-0-0-0-0-0-0-0-x----x---x--------------------------------|
     . .   . . ....   . .   . .   .    .   .

D#|-------------------------------------------------------------------------|
A#|-------------------------------------------------------------------------|
F#|-------------------------------------------------------------------------|
C#|--------------3----------------------3-----------------------------------|
G#|0-----0------/-\-0-----6-----6------/-\-3--------------------------------|
C#|0-0-0-0-0-0-0000-0-0-0-6-6-6-6-6-6-5555-3-3-3----------------------------|
     . .   . . ....   . .   . .   . . ....   . .

D#|-------------------------------------------------------------------------|
A#|-------------------------------------------------------------------------|
F#|-------------------------------------------------------------------------|
C#|--------------3----------------------------------------------------------|
G#|0-----0------/-\-0-----0-----0---3h5-0h1-3h5-----------------------------|
C#|0-0-0-0-0-0-0000-0-0-0-0-0-0-0-x----x---x--------------------------------|
     . .   . . ....   . .   . .   .    .   .

D#|-------------------------------------------------------------------------|
A#|-------------------------------------------------------------------------|
F#|-------------------------------------------------------------------------|
C#|--------------3----------------------------------------------------------|
G#|0-----0------/-\-0-----6-----5-------------------------------------------|
C#|0-0-0-0-0-0-0000-0-0-0-6-----5-------------------------------------------|
     . .   . . ....   . .

Chorus:

Rhythm

D#|-------------------------------------------------|
A#|-------------------------------------------------|
F#|4-44444-44449-99999-99992-22222-22224--44444-4444|
C#|4-44444-44449-99999-99992-22222-22224--44444-4444|
G#|2-22222-22227-77777-77770-00000-00002--22222-2222|
C#|-------------------------------------------------|Repeat once but end
                                                       |   second time with
                                                       |
D#|------------------------|                           |
A#|------------------------|                           |
F#|------------------------|                           |
C#|------------------------|                           |
G#|5-55555-5555111111111111| 
 
 
Volbeat - Evelyn :: indexed at Ultimate Guitar.
Evelyn tabs @ 911Tabs

Quick tip, so you can enjoy Evelyn even more:

You might want to transpose the song if it is too high or too low for you to sing. Just click the desired option while playing a song and all the chords will automatically be transponded into a new key.

Show us your talent, perform Evelyn!

Here you can post a video or audio performance. Tell me more ...
Where can we find your performance? Tell me more ...
Your comment:
Please, log in to post your performance.