Artists by letter: A B C D E F G H I J K L M N O P Q R S T U V W X Y Z 0-9

 
Dead But Rising
Band:  Volbeat
Song:  Dead But Rising
Album: Outlaw Gentlemen And Shady Ladies
Notes:  Song was tabbed by ear, and since everyone hears songs a bit differently,
        vary as you see (or hear) fit.  Enjoy!

Tuning: D Standard (D, G, C, F, A, d)
(Tune every string down 1 whole step)

h = hammer on
p = pull off
/ = slide up
\ = slide down
x = muffled string
PM = palm mute

INTRO 1
                           PM........|
d|------------------------------------------------------------------|
A|------------------------------------------------------------------|
F|------------------------------------------------------------------|
C|-2------------------------------------2---------------------------|
G|-2-----------------------3-3-3-3--3---2---------------2h3p2h3p2h3-|
D|-0-----------------------1-1-1-1--1---0---------------------------|

                           PM........|
d|------------------------------------------------------------------|
A|------------------------------------------------------------------|
F|------------------------------------------------------------------|
C|-2------------------------------------2---------------------------|
G|-2-----------------------3-3-3-3--3---2---------------2h5p2h5p2h5-|
D|-0-----------------------1-1-1-1--1---0---------------------------|

                           PM........|
d|------------------------------------------------------------------|
A|------------------------------------------------------------------|
F|------------------------------------------------------------------|
C|-2------------------------------------2---------------------------|
G|-2-----------------------3-3-3-3--3---2---------------2h3p2h3p2h3-|
D|-0-----------------------1-1-1-1--1---0---------------------------|

                           PM........|
d|------------------------------------------------------------------|
A|------------------------------------------------------------------|
F|------------------------------------------------------------------|
C|-2------------------------------------2---------------------------|
G|-2-----------------------3-3-3-3--3---2-----2-2-2-----------------|
D|-0-----------------------1-1-1-1--1---0-----0-0-0-----------------|

INTRO 2

  PM..................|      PM..|     PM......|  PM.| PM  PM..| PM
d|--------------------------------------------------------------------------|
A|--------------------------------------------------------------------------|
F|--------------------------------------------------------------------------|
C|--------------------------------------------------------------------------|
G|---------------------9h10p9-----7h9p7---------3-----5---3-----3-----------|
D|-0-0-0-0-0-0-0-0-0-0--------0-0-------0-0-0-0-1-0-0-3-0-1-0-0-1-0-1p0-1p0-|

  PM..................|      PM..|     PM......|        PM.....|
d|--------------------------------------------------------------------------|
A|--------------------------------------------------------------------------|
F|--------------------------------------------------------------------------|
C|--------------------------------------------------------------------------|
G|---------------------9h10p9-----7h9p7-------------------------------------|
D|-0-0-0-0-0-0-0-0-0-0--------0-0-------0-0-0-0-1p0-1p0-0-0-0-0-1p0-1p0-1p0-|

 
  PM..................|      PM..|     PM......|  PM.| PM  PM..| PM
d|--------------------------------------------------------------------------|
A|--------------------------------------------------------------------------|
F|--------------------------------------------------------------------------|
C|--------------------------------------------------------------------------|
G|---------------------9h10p9-----7h9p7---------3-----5---3-----3-----------|
D|-0-0-0-0-0-0-0-0-0-0--------0-0-------0-0-0-0-1-0-0-3-0-1-0-0-1-0-1p0-1p0-|

  PM..................|      PM..|     PM......|      PM......|
d|--------------------------------------------------------------------------|-------------|
A|--------------------------------------------------------------------------|-------------|
F|--------------------------------------------------------------------------|-------------|
C|----------------------------------------------------------------------2---|-(2)---------|
G|---------------------9h10p9-----7h9p7---------------------------------2---|-(2)---------|
D|-0-0-0-0-0-0-0-0-0-0--------0-0-------0-0-0-0-1p0-1p0-0-0-0-0-1p0-1p0-0---|-(0)---------|

TEMPO CHANGE 
                                  Strum up.........|                          PM.....................|
d|-------------------------------------------------|-------------------------------------------------|
A|-------------------------------------------------|-------------------------------------------------|
F|-------------------------------------------------|-------------------------------------------------|
C|-------------------------------------------------|-------------------------------------------------|
G|--x-----3-----------------------3--3--3--3--3--3-|-3-----------------------------------------------|
D|--x-----1-----------------------1--1--1--1--1--1-|-1------------------------1--1--1--1--1--1--1--1-|

PRE-VERSE

d|-------------------------------------------------|-------------------------------------------------|
A|-------------------------------------------------|-------------------------------------------------|
F|-------------------------------------------------|-------------------------------------------------|
C|-------------------------------------------------|-------------------------------------------------|
G|-----7--------7----------------------------------|-----7--------7----------------------------------|
D|--0--------0-----0--------8-8-8-8--8p7-7-7--7----|--0--------0-----0--------1--1-1-1-/7-7-7-7--7---|

d|-------------------------------------------------|-------------------------------------------------|
A|-------------------------------------------------|-------------------------------------------------|
F|-------------------------------------------------|-------------------------------------------------|
C|-------------------------------------------------|-------------------------------------------------|
G|-----7--------7----------------------------------|-----7--------7----------------------------2-----|
D|--0--------0-----0--------8-8-8-8--8p7-7-7--7----|--0--------0-----0--------1--1-1-1--/5--1--0-----|

VERSE 1 & 2

        PM....................................|             PM...|
d|--------------------------------------------|--------------------------------------------|
A|--------------------------------------------|--------------------------------------------|
F|--------------------------------------------|-----------------------------------7--------|
C|--2-----------------------------------------|-----------------------------------5----7\--|
G|--2-----------------------------------------|--5h7p5--7-----------5h7p5-5h7p5--------5\--|
D|--0---0-0-0-0---0-0-0-0---0-0-0-0---0-0-0-0-|-------------0-0-0--------------------------|

        PM....................................|             PM...|
d|--------------------------------------------|----------------------------------------------|
A|--------------------------------------------|----------------------------------------------|
F|--------------------------------------------|-----------------------------------7----------|
C|--2-----------------------------------------|-----------------------------------5--7-------|
G|--2-----------------------------------------|--5h7p5--7-----------5h7p5-5h7p5------5--9/---|
D|--0---0-0-0-0---0-0-0-0---0-0-0-0---0-0-0-0-|-------------0-0-0-----------------------7/---|

CHORUS

      PM..|   PM..........|   PM..|       PM..|   PM..|
d|-----------------------------------|----------------------------------------|
A|-----------------------------------|----------------------------------------|
F|-----------------------------------|------------------------5-7p5---7--7/9--|
C|-----------------------------------|--------------------5h7-------7---------|
G|-10------10--------------10--------|--5-------5-----------------------------|
D|--8-8-8-8-8-8-8-8-8-8-8-8-8-8-8-8--|--3-3-3-3-3-3-3-3-----------------------|

      PM..|   PM..........|   PM..|       PM..|   PM..|   PM..|   PM..|
d|-----------------------------------|-----------------------------------|
A|-----------------------------------|-----------------------------------|
F|-----------------------------------|-----------------------------------|
C|-----------------------------------|------------------5-------5--------|
G|-10------10--------------10--------|--5-------5-------7-7-7-7-7-7-7-7--|
D|--8-8-8-8-8-8-8-8-8-8-8-8-8-8-8-8--|--3-3-3-3-3-3-3-3------------------|
 
d|--------------------------------------------|
A|--------------------------------------------|
F|--------------------------------------------|
C|--5---------5-------------------------------|
G|--3---------7---------5-----------------(5)-|
D|----------------------3-----------------(3)-|

BRIDGE
                                  Strum up.........|                                Strum up.........|
d|-------------------------------------------------|-------------------------------------------------|
A|-------------------------------------------------|-------------------------------------------------|
F|-------------------------------------------------|-------------------------------------------------|
C|-------------------------------------------------|-------------------------------------------------|
G|--x--5--------------------------5--5--5--5--5--5-|--5-----------------------------5--5--5--5--5--5-|
D|--x--3--------------------------3--3--3--3--3--3-|--3-----------------------------3--3--3--3--3--3-|

d|-------------------------------------------------|-------------------------------------------------|
A|-------------------------------------------------|-------------------------------------------------|
F|-------------------------------------------------|-------------------------------------------------|
C|-------------------------------------------------|-------------------------------------------------|
G|--5----------------------------------------------|--5----------------------------------------------|
D|--3----------------------------------------------|--3----------------------------------------------|

                                                                                    Strum up.........|
d|-------------------------------------------------|-------------------------------------------------|
A|-------------------------------------------------|-------------------------------------------------|
F|-------------------------------------------------|-------------------------------------------------|
C|--------------------------7----------------------|-------------------------------------------------|
G|--2-----------------------5----------------------|--5-----------------------------5--5--5--5--5--5-|
D|--0----------------------------------------------|--3-----------------------------3--3--3--3--3--3-|

d|-------------------------------------------------|-------------------------------------------------|
A|-------------------------------------------------|-------------------------------------------------|
F|-------------------------------------------------|-------------------------------------------------|
C|-------------------------------------------------|-------------------------------------------------|
G|--5----------------------------------------------|--5----------------------------------------------|
D|--3----------------------------------------------|--3----------------------------------------------|

                                                                              PM.....................|
d|-------------------------------------------------|-------------------------------------------------|
A|-------------------------------------------------|-------------------------------------------------|
F|-------------------------------------------------|-------------------------------------------------|
C|--------------------------7----------------------|-------------------------------------------------|
G|--2-----------------------5----------------------|--5----------------------------------------------|
D|--0----------------------------------------------|--3-----------------------3--3--3--3--3--3--3--3-|

FINAL CHORUS

      PM..|   PM..........|   PM..|       PM..|   PM..|
d|-----------------------------------|----------------------------------------|
A|-----------------------------------|----------------------------------------|
F|-----------------------------------|------------------------5-7p5---7--7/9--|
C|-----------------------------------|--------------------5h7-------7---------|
G|-10------10--------------10--------|--5-------5-----------------------------|
D|--8-8-8-8-8-8-8-8-8-8-8-8-8-8-8-8--|--3-3-3-3-3-3-3-3-----------------------|

      PM..|   PM..........|   PM..|       PM..|   PM..|
d|-----------------------------------|----------------------------------------|
A|-----------------------------------|----------------------------------------|
F|-----------------------------------|------------------------5-7p5---5h7--5--|
C|-----------------------------------|--------------------5h7-------7---------|
G|-10------10--------------10--------|--5-------5-----------------------------|
D|--8-8-8-8-8-8-8-8-8-8-8-8-8-8-8-8--|--3-3-3-3-3-3-3-3-----------------------|

      PM..|   PM..........|   PM..|       PM..|   PM..|
d|-----------------------------------|----------------------------------------|
A|-----------------------------------|----------------------------------------|
F|-----------------------------------|------------------------5-7p5---7--7/9--|
C|-----------------------------------|--------------------5h7-------7---------|
G|-10------10--------------10--------|--5-------5-----------------------------|
D|--8-8-8-8-8-8-8-8-8-8-8-8-8-8-8-8--|--3-3-3-3-3-3-3-3-----------------------|
 
      PM..|   PM..........|   PM..|       PM..|   PM..|   PM..|   PM..|
d|-----------------------------------|-----------------------------------|
A|-----------------------------------|-----------------------------------|
F|-----------------------------------|-----------------------------------|
C|-----------------------------------|------------------5-------5--------|
G|-10------10--------------10--------|--5-------5-------7-7-7-7-7-7-7-7--|
D|--8-8-8-8-8-8-8-8-8-8-8-8-8-8-8-8--|--3-3-3-3-3-3-3-3------------------|

                        PM.....................|
d|---------------------------------------------|
A|---------------------------------------------|
F|---------------------------------------------|
C|--5---------5--------------------------------|
G|--3---------7---------5--5--5--5--5--5--5--5-|
D|----------------------3--3--3--3--3--3--3--3-|

OUTRO

d|-------------------------------------------------|-------------------------------------------------|
A|-------------------------------------------------|-------------------------------------------------|
F|-------------------------------------------------|-------------------------------------------------|
C|-------------------------------------------------|-------------------------------------------------|
G|-----7--------7----------------------------------|-----7--------7----------------------------------|
D|--0--------0-----0--------8-8-8-8--8p7-7-7--7----|--0--------0-----0--------1--1-1-1-/7-7-7-7--7---|

d|-------------------------------------------------|-------------------------------------------------|
A|-------------------------------------------------|-------------------------------------------------|
F|-------------------------------------------------|-------------------------------------------------|
C|-------------------------------------------------|-------------------------------------------------|
G|-----7--------7----------------------------------|-----7--------7-------------------------3--3-----|
D|--0--------0-----0--------8-8-8-8--8p7-7-7--7----|--0--------0-----0--------1--1-1-1--/5--1--1-----|

                            PM.....................|
d|-------------------------------------------------|-------------------------------------------------|
A|-------------------------------------------------|-------------------------------------------------|
F|-------------------------------------------------|-------------------------------------------------|
C|-------------------------------------------------|--2----------------------------------------------|
G|-(3)----------------------3-3-3-3----3-3-3-3-3-3-|--2----------------------------------------------|
D|-(1)----------------------1-1-1-1----1-1-1-1-1-1-|--0----------------------------------------------|

LYRICS

Verse 1:
Dear wind of Mississippi can you call him by name
I have followed his wings on a sunny day

Chorus:
I like to believe he's the chosen one
I like to believe he's the fallen one
Dead but rising

Verse 2:
I raise the fist, raise the fist with power and hate
And wishing that his claws will grab on to my hand

Chorus:
I like to believe he's the chosen one
I like to believe he's the fallen one
Dead but rising

Bridge:
I have been to the end of waters
I have been to the end of earth
I've been over mountains and riding the storms
Dear son your words have reached me
And for that I can carry on
I'll guide you in spirit
Today I'll be home

Final Chorus:
I like to believe he's the fallen one
I like to believe he's the chosen one
The rebirth of man heals a bleeding heart
The eagle of kings wears my fathers soul
Dead but rising


.
 
 
Volbeat - Dead But Rising :: indexed at Ultimate Guitar.
Dead But Rising tabs @ 911Tabs

Quick tip, so you can enjoy Dead But Rising even more:

After the registration (which takes just 10 seconds, remember?) you will be able to use your profile - your very own piece of YourChords.com.

Show us your talent, perform Dead But Rising!

Here you can post a video or audio performance. Tell me more ...
Where can we find your performance? Tell me more ...
Your comment:
Please, log in to post your performance.