Artists by letter: A B C D E F G H I J K L M N O P Q R S T U V W X Y Z 0-9

 
Another Day Another Way
-------------------------------------------------------------------------------
	 		   ANOTER DAY ANOTHER WAY - Volbeat
                   from the album - THE STRENGTH/THE SOUND/THE SONGS
-------------------------------------------------------------------------------

Tabbed by: ominousnocturna
Email: [email protected]

Tuning: DADGBe (Drop D)



Repeat 3x
e|---------------------------------------------------------------------------|
B|---------------------------------------------------------------------------|
G|---------------------------------------------------------------------------|
D|---------------------------------------------------------------------------|
A|00000000000000000000000000000000-5-5-5h7-000000-7-7-7p5-00005h7------------|
D|00000000000000000000000000000000--0-0----000000--0-0----0000---------------|
  xxxxxxxxxxxxxxxxxxxxxxxxxxxxxxxx  x x    xxxxxx  x x    xxxx
					don't play this part on last one.





e|---------------------------------------------------------------------------|
B|---------------------------------------------------------------------------|
G|---------------------------------------------------------------------------|
D|7777-7777777/88\5/7777-7777777/8888-7777-7777777/88\5/7777-7777777/8888----|
A|5555-5555555/66\3/5555-5555555/6666-5555-5555555/66\3/5555-5555555/6666----|
D|---------------------------------------------------------------------------|
      x                 x                 x                 x

e|---------------------------------------------------------------------------|
B|---------------------------------------------------------------------------|
G|---------------------------------------------------------------------------|
D|7777-7777777/88\5/7777-7777777/8888-7777-7777777/88\5----------------------|
A|5555-5555555/66\3/5555-5555555/6666-5555-5555555/66\3878-------------------|
D|-----------------------------------------------------878-------------------|
      x                 x                 x





e|---------------------------------------------------------------------------|
B|---------------------------------------------------------------------------|
G|---------------------------------------------------------------------------|
D|---------------------------------------------------------------------------|
A|00000000000000000000000000000000-5-5-5h7-000000-7-7-7p5-00005h7------------|
D|00000000000000000000000000000000--0-0----000000--0-0----0000---------------|
  xxxxxxxxxxxxxxxxxxxxxxxxxxxxxxxx  x x    xxxxxx  x x    xxxx

e|---------------------------------------------------------------------------|
B|---------------------------------------------------------------------------|
G|---------------------------------------------------------------------------|
D|---------------------------------------------------------------------------|
A|00000000000000000000000000000000-5-5-5h7-000000-7-7-7p5~~~~~~~~------------|
D|00000000000000000000000000000000--0-0----000000--0-0-----------------------|
  xxxxxxxxxxxxxxxxxxxxxxxxxxxxxxxx  x x    xxxxxx  x x  let the last note ring







e|-----------------------------------------------------------------------------------------|
B|-----------------------------------------------------------------------------------------|
G|-----------------------------------------------------------------------------------------|
D|--------------------------------7777777777777777--------55555555-------------------------|
A|11111--00000--11111/8~-00000/7~-555555555555555555555555333333335555555555555555878-888--|
D|------------------------------------------------55555555--------5555555555555555878-888--|

e|---------------------------------------------------------------------------|
B|---------------------------------------------------------------------------|
G|---------------------------------------------------------------------------|
D|7777777777777777--------55555555-------------------------------------------|
A|5555555555555555555555553333333355555555555555557--------------------------|
D|----------------55555555--------55555555555555557--------------------------|





e|-------------------------------------------------------------------------------------------|
B|-------------------------------------------------------------------------------------------|
G|-------------------------------------------------------------------------------------------|
D|7777-7777777/88\5/7777-7777777/8888-7777-7777777/88\5--------------------------------------|
A|5555-5555555/66\3/5555-5555555/6666-5555-5555555/66\3878-5-5-5h7-000000-7-7-7p5-00005h7----|
D|-----------------------------------------------------878--0-0----000000--0-0----0000-------|
      x                 x                 x                 x x    xxxxxx  x x    xxxx

e|---------------------------------------------------------------------------|
B|---------------------------------------------------------------------------|
G|---------------------------------------------------------------------------|
D|---------------------------------------------------------------------------|
A|00000000000000000000000000000000-5-5-5h7-000000-7-7-7p5-00005h7------------|
D|00000000000000000000000000000000--0-0----000000--0-0----0000---------------|
  xxxxxxxxxxxxxxxxxxxxxxxxxxxxxxxx  x x    xxxxxx  x x    xxxx

e|---------------------------------------------------------------------------|
B|---------------------------------------------------------------------------|
G|---------------------------------------------------------------------------|
D|---------------------------------------------------------------------------|
A|00000000000000000000000000000000-5-5-5h7-000000-7-7-7p5~~~~~~~~------------|
D|00000000000000000000000000000000--0-0----000000--0-0-----------------------|
  xxxxxxxxxxxxxxxxxxxxxxxxxxxxxxxx  x x    xxxxxx  x x  let the last note ring





e|-----------------------------------------------------------------------------------------|
B|-----------------------------------------------------------------------------------------|
G|-----------------------------------------------------------------------------------------|
D|--------------------------------7777777777777777--------55555555-------------------------|
A|11111--00000--11111/8~-00000/7~-555555555555555555555555333333335555555555555555878-888--|
D|------------------------------------------------55555555--------5555555555555555878-888--|

e|----------------------------------------------------|
B|----------------------------------------------------|
G|----------------------------------------------------|
D|7777777777777777--------55555555--------------------|
A|5555555555555555555555553333333355555555555555557---|
D|----------------55555555--------55555555555555557---|

e|----------------------------------------------------|
B|----------------------------------------------------|
G|----------------------------------------------------|
D|7777777777777777--------55555555--------------------|
A|555555555555555555555555333333335555555555555555878-|
D|----------------55555555--------5555555555555555878-|

e|----------------------------------------------------|
B|----------------------------------------------------|
G|----------------------------------------------------|
D|7777777777777777--------55555555--------------------|
A|5555555555555555555555553333333355555555555555557---|
D|----------------55555555--------55555555555555557---|



e|----------------------------------------------------------------------------------|
B|----------------------------------------------------------------------------------|
G|----------------------------------------------------------------------------------|
D|7777-7777777/88\5/7777-7777777/8888-7777-7777777/88\5/7777-7777777/8888-----------|
A|5555-5555555/66\3/5555-5555555/6666-5555-5555555/66\3/5555-5555555/6666-----------|
D|----------------------------------------------------------------------------------|
      x                 x                 x                 x

e|----------------------------------------------------------------------------------|
B|----------------------------------------------------------------------------------|
G|----------------------------------------------------------------------------------|
D|7777-7777777/88\5/7777-7777777/8888-7777-7777777/88\5-----------------------------|
A|5555-5555555/66\3/5555-5555555/6666-5555-5555555/66\3878---5-5-5h7--7-7-7p5-------|
D|-----------------------------------------------------878----0-0------0-0----------|
      x                 x                 x                   x x   x  x x   x







| /  slide up
| \  slide down
| h  hammer-on
| p  pull-off
| ~  vibrato
| +  harmonic
| x  Mute note
===============================================================================
 
 
Volbeat - Another Day Another Way :: indexed at Ultimate Guitar.
Another Day Another Way tabs @ 911Tabs

Quick tip, so you can enjoy Another Day Another Way even more:

YourChords.com Guitar Chords and Tabs Archive is currently indexing over 240'000 songs from 21'000+ different artists. And new chords just keep on coming in, so you will surely never run out of them.

Show us your talent, perform Another Day Another Way!

Here you can post a video or audio performance. Tell me more ...
Where can we find your performance? Tell me more ...
Your comment:
Please, log in to post your performance.