Artists by letter: A B C D E F G H I J K L M N O P Q R S T U V W X Y Z 0-9

 
Chemical Warfare
Band- Voivod
Song- Chemical Warfare

Standard tuning

Intro:
------
                                                                   Play 2x
e---||(Guitar1)-----------------------|--------------------------------||
B---||--------------------------------|--------------------------------||
G---||--------------------------------|--------------------------------||
D---||--------------------------------|--------------------------------||
A---||--------------------------------|--------------------------------||
E---||0---0---0---0---0---0---0---0---|0-0-0---0---0-0-0---0---0-0-0---||
       .   .   .   .   .   .   .   .    . . .   .   . . .   .   . . .

Play 6x
||(Guitars1&2)--------------------|--------------------------------||
||--------------------------------|--------------------------------||
||--------------------------------|--------------------------------||
||--------------------------------|--------------------------------||
||--------------------------------|--------------------------------||
||0---0---0---0---0---0---0---0---|0-0-0---0---0-0-0---0---0-0-0---||
  .   .   .   .   .   .   .   .    . . .   .   . . .   .   . . .

Pre-verse:
----------

Play 4x
||--------------------------------|--------------------------------||
||--------------------------------|--------------------------------||
||--------------------------------|--------------------------------||
||--------------------------------|------------------------------2-||
||--------------------------------|--------------------------------||
||0-0-0-0-0-0-0-0-0-0-0-0-0-0-0-0-|3-3-3-3-3-3-3-3-1-1-1-1-1-1-1---||
  . . . . . . . . . . . . . . . .  . . . . . . . . . . . . . . .

Verse 1:
--------
     
                                                              Play 8x
||--------------------------------|--------------------------------||
||--------------------------------|--------------------------------||
||--------------------------------|--------------------------------||
||--------------------------------|------------------------------2-||
||--------------------------------|--------------------------------||
||0-0-0-0-0-0-0-0-0-0-0-0-0-0-0-0-|3-3-3-3-3-3-3-3-1-1-1-1-1-1-1---||
  . . . . . . . . . . . . . . . .  . . . . . . . . . . . . . . .

Chorus:
-------

||--------------------------------|--------------------------------|
||--------------------------------|--------------------------------|
||--------------------------------|--------------------------------|
||3-------------------------------|--------------------2---3---2---|
||1-------------------------------|--------------------0---1---0---|
||--------------------------------|--------------------------------|

|--------------------------------|--------------------------------|
|--------------------------------|--------------------------------|
|--------------------------------|--------------------------------|
|--------------------------------|------------------------2-------|
|4-------------------------------|------------------------0-------|
|2-------------------------------|--------------------------------|

|--------------------------------|--------------------------------|
|--------------------------------|--------------------------------|
|--------------------------------|--------------------------------|
|3-------------------------------|--------2---3---2---2---3---2---|
|1-------------------------------|--------0---1---0---0---1---0---|
|--------------------------------|--------------------------------|

Play 2x
|--------------------------------|--------------------------------||
|--------------------------------|--------------------------------||
|--------------------------------|--------------------------------||
|--------------------------------|------------------------2-------||
|4-------------------------------|------------------------0-------||
|2-------------------------------|--------------------------------||

Pre-verse:
----------
                                                              Play 3x
||--------------------------------|--------------------------------||
||--------------------------------|--------------------------------||
||--------------------------------|--------------------------------||
||--------------------------------|------------------------------2-||
||--------------------------------|--------------------------------||
||0-0-0-0-0-0-0-0-0-0-0-0-0-0-0-0-|3-3-3-3-3-3-3-3-1-1-1-1-1-1-1---||
  . . . . . . . . . . . . . . . .  . . . . . . . . . . . . . . .

|--------------------------------|--------------------------------|
|--------------------------------|--------------------------------|
|--------------------------------|--------------------------------|
|--------------------------------|--------------------------------|
|--------------------------------|5---------------3---------------|
|0-0-0-0-0-0-0-0-0-0-0-0-0-0-0-0-|3---------------1---------------|
 . . . . . . . . . . . . . . . .

Verse 2:
--------
                                                              Play 8x
||--------------------------------|--------------------------------||
||--------------------------------|--------------------------------||
||--------------------------------|--------------------------------||
||--------------------------------|------------------------------2-||
||--------------------------------|--------------------------------||
||0-0-0-0-0-0-0-0-0-0-0-0-0-0-0-0-|3-3-3-3-3-3-3-3-1-1-1-1-1-1-1---||
  . . . . . . . . . . . . . . . .  . . . . . . . . . . . . . . .

Chorus:
-------

||--------------------------------|--------------------------------|
||--------------------------------|--------------------------------|
||--------------------------------|--------------------------------|
||3-------------------------------|--------------------2---3---2---|
||1-------------------------------|--------------------0---1---0---|
||--------------------------------|--------------------------------|

|--------------------------------|--------------------------------|
|--------------------------------|--------------------------------|
|--------------------------------|--------------------------------|
|--------------------------------|------------------------2-------|
|4-------------------------------|------------------------0-------|
|2-------------------------------|--------------------------------|

|--------------------------------|--------------------------------|
|--------------------------------|--------------------------------|
|--------------------------------|--------------------------------|
|3-------------------------------|--------2---3---2---2---3---2---|
|1-------------------------------|--------0---1---0---0---1---0---|
|--------------------------------|--------------------------------|
                                                             Play 2x
|--------------------------------|--------------------------------||
|--------------------------------|--------------------------------||
|--------------------------------|--------------------------------||
|--------------------------------|------------------------2-------||
|4-------------------------------|------------------------0-------||
|2-------------------------------|--------------------------------||

Interlude:
----------

Half-time feel.  (Hell, I dunno, it seems slower ok!)  :-)

||----------------------------------------------------------------|
||----------------------------------------------------------------|
||----------------------------------------------------------------|
||----------------10\-9----------------------------------10-------|
||----------------8-\-7----------------------------------8--------|
||0---0---0---0----------0---0---0---0---0---0---0---0------------|
  .   .   .   .          .   .   .   .   .   .   .   .
                                                            Play 4x
|----------------------------------------------------------------||
|----------------------------------------------------------------||
|----------------------------------------------------------------||
|----------------10\-9-------------------------------------------||
|----------------8-\-7-------------------------------------------||
|0---0---0---0-----------0---0---0---0---7---8---11--10--9---8---||
|.   .   .   .           .   .   .   .

||----------------------------------------------------------------|
||----------------------------------------------------------------|
||----------------------------------------------------------------|
||----------------------------------------------------------------|
||----------------8-\-7----------------------------------8--------|
||0---0---0---0---6-\-5--0---0---0---0---0---0---0---0---6--------|
  .   .   .   .          .   .   .   .   .   .   .   .             
                                                            Play 2x
|----------------------------------------------------------------||
|----------------------------------------------------------------||
|----------------------------------------------------------------||
|----------------------------------------------------------------||
|----------------8-\-7-------------------------------------------||
|0---0---0---0---6-\-5---0---0---0---0---0---1---4---3---2---1---||
|.   .   .   .           .   .   .   .

||----------------------------------------------------------------|
||----------------------------------------------------------------|
||----------------------------------------------------------------|
||----------------7-\-6----------------------------------7--------|
||----------------5-\-4----------------------------------5--------|
||0---0---0---0----------0---0---0---0---0---0---0---0------------|
  .   .   .   .          .   .   .   .   .   .   .   .             
                                                            Play 2x
|----------------------------------------------------------------||
|----------------------------------------------------------------||
|----------------------------------------------------------------||
|----------------7-\-6-------------------------------------------||
|----------------5-\-4-------------------------------------------||
|0---0---0---0-----------0---0---0---0---4---5---8---7---6---5---||
|.   .   .   .           .   .   .   .

Play 2x
||--------------------------------|--------------------------------||
||--------------------------------|--------------------------------||
||--------------------------------|--------------------------------||
||--------7\6-----------------7---|--------7\6---------------------||
||--------5\4-----------------5---|--------5\4---------------------||
||0-0-0-0-----0-0-0-0-0-0-0-0-----|0-0-0-0-----0-0-0-0-4-5-8-7-6-5-||
  . . . .     . . . . . . . .      . . . .     . . . .

(Back to normal-time feel)



|(Guitar1)-----------------------|--------------------------------|
|--------------------------------|--------------------------------|
|--------------------------------|--------------------------------|
|--------------------------------|--------------------------------|
|--------------------------------|--------------------------------|
|0---0---0---0---0---0---0---0---|0-0-0---0---0-0-0---0---0-0-0---|
 .   .   .   .   .   .   .   .    . . .   .   . . .   .   . . .

Play 6x
||(Guitars1&2)--------------------|--------------------------------||
||--------------------------------|--------------------------------||
||--------------------------------|--------------------------------||
||--------------------------------|--------------------------------||
||--------------------------------|--------------------------------||
||0---0---0---0---0---0---0---0---|0-0-0---0---0-0-0---0---0-0-0---||
  .   .   .   .   .   .   .   .    . . .   .   . . .   .   . . .



||--------------------------------|--------------------------------|
||--------------------------------|--------------------------------|
||--------------------------------|----------------7---------------|
||--------------------------------|----------------5-----7-----9---|
||4-4-4-4-4-4-4-4-4-4-4-4-4-4-4-4-|4-4-4-4-4-4-4-4-------5-----7---|
||--------------------------------|--------------------------------|

|--------------------------------|--------------------------------|
|--------------------------------|--------------------------------|
|--------------------------------|----------------7---------------|
|--------------------------------|----------------5-----7-----9---|
|4-4-4-4-4-4-4-4-4-4-4-4-4-4-4-4-|4-4-4-4-4-4-4-4-------5-----7---|
|--------------------------------|--------------------------------|

|--------------------------------|--------------------------------|
|--------------------------------|--------------------------------|
|--------------------------------|----------------7---------------|
|--------------------------------|----------------5-----7-----9---|
|4-4-4-4-4-4-4-4-4-4-4-4-4-4-4-4-|4-4-4-4-4-4-4-4-------5-----7---|
|--------------------------------|--------------------------------|

Play 2x
|--------------------------------|--------------------------------||
|--------------------------------|--------------------------------||
|--------------------------------|7-----6-----5-------------------||
|--------------------------------|5-----4-----3---7-----8-----7---||
|4-4-4-4-4-4-4-4-4-4-4-4-4-4-4-4-|----------------5-----6-----5---||
|--------------------------------|--------------------------------||

|--------------------------------|
|--------------------------------|
|--------------------------------|
|--------------------------------|
|--------------------------------|
|--------------------------------|

Play 4x
||--------------------------------|--------------------------------||
||--------------------------------|--------------------------------||
||--------------------------------|--------------------------------||
||--------------------------------|3-----------2-------------------||
||5---------------4---------------|------------------------3-------||
||----2-2-2-2-2-2-----2-2-2-2-2-2-|----2-2-2-2-----2-2-2-2-----2---||
      . . . . . .     . . . . . .      . . . .     . . . .     .

(Not too sure about this part...)                             Play 3x
||--------------------------------|--------------------------------||
||--------------------------------|--------------------------------||
||--------------------------------|--------------------------------||
||--------------------------------|------------------------1---2---||
||--------3---2-----------0---2---|--------3---2-------------------||
||4-4-4-4---------4-4-4-4---------|4-4-4-4---------3-3-3-3---------||
  . . . .         . . . .          . . . .         . . . .

|--------------------------------|--------------------------------|
|--------------------------------|--------------------------------|
|--------------------------------|--------------------------------|
|--------------------------------|--------------------------------|
|--------3---2-----------0---2---|--------3---2-------------------|
|4-4-4-4---------4-4-4-4---------|4-4-4-4---------3-3-3-3-3-3-3-3-|
 . . . .         . . . .          . . . .         . . . . . . . .

|--------------------------------|--------------------------------|
|--------------------------------|--------------------------------|
|--------------------------------|--------------------------------|
|--------------------------------|----------------2---------------|
|--------------------------------|----------------2---------------|
|3-3-3-3-3-3-3-3-3-3-3-3-3-3-3-3-|3-3-3-3-3-3-3-3-0---------------|
 . . . . . . . . . . . . . . . .  . . . . . . . .

 
 
Voivod - Chemical Warfare :: indexed at Ultimate Guitar.
Chemical Warfare tabs @ 911Tabs
People who played Voivod - Chemical Warfare also played these songs by Voivod:
Clouds In My House Tab, Astronomy Domine Tab, Missing Sequences Tab, Nanoman Tab, X-stream Tab, Brain Scan Tab

About the artist behind Chemical Warfare:

Voivod is a heavy metal band from Jonquière, Quebec, Canada. Their musical style has changed several times since the bands origin. Starting out as a speed metal band, Voivod has added a mix of progressive metal and thrash metal to try to create their own unique metal style. Despite a number of band member changes over the years and the death of original guitarist Denis "Piggy" d'Amour in 2005, Voivod continues to record and tour their last release being Katorz in 2006.

Indexed at Wikipedia.

Show us your talent, perform Chemical Warfare!

Here you can post a video or audio performance. Tell me more ...
Where can we find your performance? Tell me more ...
Your comment:
Please, log in to post your performance.