Artists by letter: A B C D E F G H I J K L M N O P Q R S T U V W X Y Z 0-9

 

Whatever You Want From Life
-------------------------------------------------------------------------------
                             Whatever you want from life - Voicst
-------------------------------------------------------------------------------
Tabbed by:deHufter
Email:

Tuning: E A D G B e

e|---1--1--1--1--1--1--1--1-------8--8--8--8--------------------------------|
B|---2--2--2--2--2--2--2--2-------9--9--9--9--------------------------------|
G|---3--3--3--3--3--3--3--3-------10-10-10-10-------------------------------|
D|---3--3--3--3--3--3--3--3-------10-10-10-10-------------------------------|
A|---1--1--1--1--1--1--1--1-------8--8--8--8--------------------------------|
E|--------------------------------------------------------------------------|

e|----8-8--8--8-----4--4--4--4--4--4--4--4-\-1--1--1--1--1--1--1-1----------|
B|----9-9--9--9-----6--6--6--6--6--6--6--6-\-2--2--2--2--2--2--2-2----------|
G|----1010-10-10----6--6--6--6--6--6--6--6-\-3--3--3--3--3--3--3-3----------|
D|----1010-10-10----6--6--6--6--6--6--6--6-\-3--3--3--3--3--3--3-3----------|
A|----8-8--8--8-----4--4--4--4--4--4--4--4-\-1--1--1--1--1--1--1-1----------|
E|--------------------------------------------------------------------------|

Chords used in chorus: F#   A#min   G#    D#

Guitar:
e|--------------------------------------------------------------------------|
B|--------------------------------------------------------------------------|
G|-------------------6-----6----5----5------6-----6-------------------------|
D|--2 2 2 2 2---------------------------------------------------------------|
A|----------------------------------------66----66--------------------------|
E|---------------66----66----44---44----------------------------------------|

In the above sequence he plays the 2nd fret on D-string (E)while song is in F# chord, so 
must be some kind of 7th thingy going on there. Quite hard to hear what he’s exactly 
though.

The last time he plays the following after the above sequence:
e|--------------------------------------------------------------------------|
B|--------------------------------------------------------------------------|
G|--------------------------------------------------------------------------|
D|-------66------66------ 66------66----------------------------------------|
A|--------------------------------------------------------------------------|
E|---66-----66-------66------66---------------------------------------------|

Back to chords of the verse again
Then the above chorus again and play the following after it:

e|--------------------------------------------------------------------------|
B|-----------------------------------55------55-----55-----55 --------------|
G|--------------------------------------------------------------------------|
D|------66-----66-----66-----66---44-----44-----44------44------------------|
A|--------------------------------------------------------------------------|
E|--66-----66------66-----66------------------------------------------------|

e|-------------------------------------------------------------------------|
B|-------------------------------------------------------------------------|
G|------------------------------66----66----66----66-6\5\4\3(let ring)-----|
D|-----66----66----66----66------------------------------------------------|
A|---------------------------66 ----66----66----66-------------------------|
E|--66----66----66----66---------------------------------------------------|

Then bass-guitar solo over the chorus chords (F#  A#min  G#  D#)

Repeat the next thingy a couple of times, think he improvises with this tune, so just 
with it yourself as well.

e|--11------------- -------  11---------------------------------------------|
B|-----11-7-9^1/4 (let ring) -- 11--7"9^1/2-9 (let ring)--------------------|
G|--------------------------------------------------------------------------|
D|--------------------------------------------------------------------------|
A|--------------------------------------------------------------------------|
E|--------------------------------------------------------------------------|

| /  slide up
| \  slide down
| h  hammer-on
| p  pull-off
| ~  vibrato
| +  harmonic
| x  Mute note
===============================================================================
 
 
Voicst - Whatever You Want From Life :: indexed at Ultimate Guitar.
Whatever You Want From Life tabs @ 911Tabs

About the artist behind Whatever You Want From Life:

Voicst are a three-piece indie rock band hailing from Amsterdam, The Netherlands. "Voicst" is South African slang, meaning "manic energy".

Indexed at Wikipedia.

Show us your talent, perform Whatever You Want From Life!

Here you can post a video or audio performance. Tell me more ...
Where can we find your performance? Tell me more ...
Your comment:
Please, log in to post your performance.