Artists by letter: A B C D E F G H I J K L M N O P Q R S T U V W X Y Z 0-9

 
Seguir Viviendo Sin Tu Amor
Esta es la version de Vetamadre que vi tocar en vivo.
Los que la toquen con eléctrica, pongan alguna distorsión no muy sucia
y queda bien, sobre todo en el estribillo.
Bueno, aca va, disfrutenla!

Nota: Los acordes, en los versos, toquenlos con este compás

Tónica - 3º - 2º - 3º - 1º - 3º - 2º - 3º
(creo que posiblemente no use la tónica y acorte el compás)

Y estos son los acordes:
D (RE), Bm (SI menor), G (SOL) cejilla en 3, A (La) cejilla en 5

Intro:
e---9-10---------|--9-10--------|--9-10------7-|-------------
b-7------10-8-10-|7------10-8-7-|7------10-8---|7-8-10-8-7-10
g----------------|--------------|--------------|-------------
d----------------|--------------|--------------|-------------
a----------------|--------------|--------------|-------------
e----------------|--------------|--------------|-------------

Si a tu corazón yo llego igual
Todo siempre se podrá elegir
No me escribas la pared
Solo quiero estar entre tu piel

Y si acaso no brillara el sol
Y quedara yo atrapado aquí
No vería la razón
De seguir viviendo sin tu amor.

[acá cambia el D (Re) por F# (Fa sostenido)]

Y hoy que enloquecido vuelvo
Buscando tu querer
No queda más que viento (no)
No queda más que viento.

Y si acaso no brillara el sol?

Solo:
e---9-10---------|--9-10-9-10-9-9/15-|--9-10------7-|
b-7------10-8-10-|7------------------|7------10-8---|
g----------------|-------------------|--------------|
d----------------|-------------------|--------------|
a----------------|-------------------|--------------|
e----------------|-------------------|--------------|

e-------------------------------|
b-7-8-10-8-7-8-7-5-7-3-5-5-7-7/9|
g-------------------------------|
d-------------------------------|
a-------------------------------|
e-------------------------------|

Y hoy que enloquecido vuelvo...

Y si acaso no brillara el sol...
 
 
Vetamadre - Seguir Viviendo Sin Tu Amor :: indexed at Ultimate Guitar.
Seguir Viviendo Sin Tu Amor tabs @ 911Tabs
People who played Vetamadre - Seguir Viviendo Sin Tu Amor also played these songs by Vetamadre:
BYN Chords, Seguir Viviendo Sin Tu Amor Tab, Sin Dudar Chords, Simple Chords, No Me Ves Tab, Ruido Del Mundo Chords

Quick tip, so you can enjoy Seguir Viviendo Sin Tu Amor even more:

Try out the AutoScroller option ... It scrolls the page for you, so you can totally focus on nailing that solo. You can choose among different speeds using your mouse or your keyboard (keys 0, 1, 2 and 3).

Show us your talent, perform Seguir Viviendo Sin Tu Amor!

Here you can post a video or audio performance. Tell me more ...
Where can we find your performance? Tell me more ...
Your comment:
Please, log in to post your performance.