Artists by letter: A B C D E F G H I J K L M N O P Q R S T U V W X Y Z 0-9

The Kids Dont Stand A Chance (ver 2) - Vampire Weekend


 
The Kids Dont Stand A Chance
[Low Riff]

e|--------------------------------------------------------------------------------------|
B|--------------------------------------------------------------------------------------|
G|--12--10-9----------12--10-9-----------------9------------9------9--12--10-9----------|
D|-----------12--10-------------12--10------10----12----10---------------------12--10---|
A|--------------------------------------12----------------------------------------------|
E|--------------------------------------------------------------------------------------|

e|----------------------|
B|----------------------|
G|----------------------|
D|-------10----9-----10-|
A|--12------------------|
E|----------------------|


[High Riff]

e|---15--13--12------------15---13--12-------------------------12-------------12---------|
B|--------------15---13------------------15---13-----------13-------15---13--------------|
G|--------------------------------------------------14-----------------------------------|
D|---------------------------------------------------------------------------------------|
A|---------------------------------------------------------------------------------------|
E|---------------------------------------------------------------------------------------|

e|---12----15---13--12------------------------------------|
B|-----------------------15---13--------13-----12-----13--|
G|--------------------------------14----------------------|
D|--------------------------------------------------------|
A|--------------------------------------------------------|
E|--------------------------------------------------------|


[Solo]

e|------------------------------------------------------------------------------------------------------|
B|-----------12tr---13tr--15tr---17tr---18tr--17tr---15tr---13tr----------------------------------------|
G|---12tr---------------------------------------------------------12tr----9tr---12tr---10tr---9tr--7tr--|
D|------------------------------------------------------------------------------------------------------|
A|------------------------------------------------------------------------------------------------------|
E|------------------------------------------------------------------------------------------------------|

e|----------------------------------|
B|----------------------------------|
G|---9tr---10tr---9tr--7tr---5tr----|
D|----------------------------------|
A|----------------------------------|
E|----------------------------------|


************************************

| tr tremolo

************************************
 
 
Vampire Weekend - The Kids Dont Stand A Chance :: indexed at Ultimate Guitar.
The Kids Dont Stand A Chance tabs @ 911Tabs
People who played Vampire Weekend - The Kids Dont Stand A Chance also played these songs by Vampire Weekend:
Oxford Comma Tab, Cape Cod Kwassa Kwassa Tab, Mansard Roof Chords, A-punk Acoustic Tab, A-punk Tab, M79 Chords, Walcott Chords, Campus Chords

About the artist behind The Kids Dont Stand A Chance:

Vampire Weekend is an indie rock band from New York City, formed in 2006 and signed to XL Recordings.

Indexed at Wikipedia.

Show us your talent, perform The Kids Dont Stand A Chance!

Here you can post a video or audio performance. Tell me more ...
Where can we find your performance? Tell me more ...
Your comment:
Please, log in to post your performance.