Artists by letter: A B C D E F G H I J K L M N O P Q R S T U V W X Y Z 0-9

 
Cousins
Cousins - Vampire Weekend

Tuning: Standard

|Intro|

Guitar 1
e|-------------------------0-0-0-0-----------------------------|------|
B|------------5------------5-5-3-3-------------5------------4~-|------|
G|----1---3---3-----1---3--3-3-5-5-----1---3---3-----1---3--4~-|------|
D|---2---4----4----2---4---4-4-4-4----2---4----4----2---4---4~-|--x2--|
A|-------------------------------------------------------------|------|
E|-------------------------------------------------------------|------|

Guitar 2 (optional)

e|-------------------------0-0-0-0-----------------------------|------|
B|------------5------------5-5-3-3-------------5-----------4~--|------|
G|------------3------------3-3-5-5-------------3-----------4~--|------|
D|------------4------------4-4-4-4-------------4-----------4~--|-x2---|
A|-------------------------------------------------------------|------|
E|-------------------------------------------------------------|------|

|Chanting|

e|----------------|  |---------------|
B|------------5---|  |-----------4~--|
G|----1--3----3---|  |---1--3----4~--|
D|---2-2--4---4---|x3|--2-2--4---4~--|
A|----------------|  |---------------|
E|----------------|  |---------------|

|Guitar Thingy 1|

Tremolo Pick
e|--12"-11"-9"-7"-6"-7"-6"-4"-2"-4"-2"---------------------|  
B|-------------------------------------5~-4"5"4"-2--0~-----|  
G|---------------------------------------------------------|  
D|---------------------------------------------------------|x2
A|---------------------------------------------------------|  
E|---------------------------------------------------------|

|Chorus|

"Me and my cousins..."
e|-------------------|
B|----------5---4----|
G|---9--9---3---4----|
D|---9--9---4---4----|
A|---7--7-------2----|
E|-------------------|



|Guitar Thingy 2|

Guitar 1
e|-------------------------0-0-0-0-----------------------------|------|
B|------------5------------5-5-3-3-------------5------------4~-|------|
G|----1---3---3-----1---3--3-3-5-5-----1---3---3-----1---3--4~-|------|
D|---2---4----4----2---4---4-4-4-4----2---4----4----2---4---4~-|--x2--|
A|-------------------------------------------------------------|------|
E|-------------------------------------------------------------|------|

Guitar 2
e|-----------12"-11"-9"////Slide------|  |\
B|------------------------------------|  | \
G|------------------------------------|  |  \
D|------------------------------------|x3|  x2
A|------------------------------------|  |  /
E|------------------------------------|  |_/

|Bridge|

"You can turn your back on the bitter world"
e|---------------------|
B|--16""""""""""""""---|Tremolo Pick 
G|---------------------|
D|---------------------|
A|---------------------|
E|---------------------|

|Guitar Thingy 3|

Guitar 1
e|--12"-11"-9"-7"-6"-7"-6"-4"-2"-4"-2"---------------------|  
B|-------------------------------------5~-4"5"4"-2--0~-----|  
G|---------------------------------------------------------|  
D|---------------------------------------------------------|x2
A|---------------------------------------------------------|  
E|---------------------------------------------------------|

Guitar 2

Comes in second time
These are done pretty fast. Almost like pull-offs.
e|--9"-12"-11"-9~--12"-11"-9--12"-11"-9~--------|  
B|---------------------------------------------|  
G|---------------------------------------------|  
D|---------------------------------------------|xAlot
A|---------------------------------------------|  
E|---------------------------------------------|

|Bells|

(Tremolo picking is optional)
e|------------11---------------------|--------------|          |-----------|
B|-----12-14~----12-14-12--------11~-|------11-12---|          |-----11/7--|
G|--11------------------------13-----|---13---------|          |---13------|
D|-------------------------11--------|11------------|(1st Time)|-11--------|(2nd Time)
A|-----------------------------------|--------------|          |-----------|
E|-----------------------------------|--------------|          |-----------|

END ON.....
e|--------|
B|--4-----|
G|--4-----|
D|--4-----|
A|--2-----|
E|--------|

:D
 
 
Vampire Weekend - Cousins :: indexed at Ultimate Guitar.
Cousins tabs @ 911Tabs

About the artist behind Cousins:

Vampire Weekend is an indie rock band from New York City, formed in 2006 and signed to XL Recordings.

Indexed at Wikipedia.

Show us your talent, perform Cousins!

Here you can post a video or audio performance. Tell me more ...
Where can we find your performance? Tell me more ...
Your comment:
Please, log in to post your performance.